ISO-10303-21;
HEADER;
FILE_DESCRIPTION (( 'STEP AP203' ),
    '1' );
FILE_NAME ('955178.step',
    '2021-11-17T08:03:35',
    ( '' ),
    ( '' ),
    'SwSTEP 2.0',
    'SolidWorks 2019',
    '' );
FILE_SCHEMA (( 'CONFIG_CONTROL_DESIGN' ));
ENDSEC;

DATA;
#1 = ORIENTED_EDGE ( 'NONE', *, *, #135, .T. ) ;
#2 = PLANE ( 'NONE',  #203 ) ;
#3 = EDGE_CURVE ( 'NONE', #46, #46, #174, .T. ) ;
#4 = PERSON_AND_ORGANIZATION ( #242, #155 ) ;
#5 = DIRECTION ( 'NONE',  ( 3.491481338843133355E-15, -1.224646799147353207E-16, 1.000000000000000000 ) ) ;
#6 = VERTEX_POINT ( 'NONE', #75 ) ;
#7 = APPROVAL_DATE_TIME ( #183, #239 ) ;
#8 = DATE_AND_TIME ( #150, #61 ) ;
#9 = DIRECTION ( 'NONE',  ( 1.000000000000000000, 0.0000000000000000000, -3.469446951953619316E-15 ) ) ;
#10 = ADVANCED_BREP_SHAPE_REPRESENTATION ( '955178', ( #189, #192, #230 ), #26 ) ;
#11 = ADVANCED_FACE ( 'NONE', ( #243 ), #223, .F. ) ;
#12 = APPLICATION_PROTOCOL_DEFINITION ( 'international standard', 'config_control_design', 1994, #16 ) ;
#13 = CARTESIAN_POINT ( 'NONE',  ( 0.0000000000000000000, 0.0000000000000000000, 0.0000000000000000000 ) ) ;
#14 = AXIS2_PLACEMENT_3D ( 'NONE', #182, #19, #35 ) ;
#15 = APPLICATION_PROTOCOL_DEFINITION ( 'international standard', 'config_control_design', 1994, #32 ) ;
#16 = APPLICATION_CONTEXT ( 'configuration controlled 3d designs of mechanical parts and assemblies' ) ;
#17 = DIRECTION ( 'NONE',  ( 1.000000000000000000, 0.0000000000000000000, -3.469446951953619316E-15 ) ) ;
#18 = EDGE_LOOP ( 'NONE', ( #224 ) ) ;
#19 = DIRECTION ( 'NONE',  ( 3.491481338843133355E-15, -0.0000000000000000000, 1.000000000000000000 ) ) ;
#20 = ORIENTED_EDGE ( 'NONE', *, *, #135, .F. ) ;
#21 = ADVANCED_FACE ( 'NONE', ( #166 ), #199, .F. ) ;
#22 = COORDINATED_UNIVERSAL_TIME_OFFSET ( 1, 0, .AHEAD. ) ;
#23 = EDGE_LOOP ( 'NONE', ( #186 ) ) ;
#24 = DIRECTION ( 'NONE',  ( 3.491481338843133355E-15, -1.217917285207545432E-16, 1.000000000000000000 ) ) ;
#25 = DATE_TIME_ROLE ( 'classification_date' ) ;
#26 =( GEOMETRIC_REPRESENTATION_CONTEXT ( 3 ) GLOBAL_UNCERTAINTY_ASSIGNED_CONTEXT ( ( #29 ) ) GLOBAL_UNIT_ASSIGNED_CONTEXT ( ( #153, #193, #80 ) ) REPRESENTATION_CONTEXT ( 'NONE', 'WORKASPACE' ) );
#27 = APPROVAL_DATE_TIME ( #58, #207 ) ;
#28 = CARTESIAN_POINT ( 'NONE',  ( 6.982962677686246003E-16, -2.435834570415083531E-17, 0.1999999999999994005 ) ) ;
#29 = UNCERTAINTY_MEASURE_WITH_UNIT (LENGTH_MEASURE( 1.000000000000000082E-05 ), #153, 'distance_accuracy_value', 'NONE');
#30 = ADVANCED_FACE ( 'NONE', ( #131, #56 ), #74, .T. ) ;
#31 = CARTESIAN_POINT ( 'NONE',  ( 0.0000000000000000000, 0.0000000000000000000, 0.0000000000000000000 ) ) ;
#32 = APPLICATION_CONTEXT ( 'configuration controlled 3d designs of mechanical parts and assemblies' ) ;
#33 = CARTESIAN_POINT ( 'NONE',  ( -6.413747168845438786E-31, 2.249639673992786412E-32, -1.836970198721029934E-16 ) ) ;
#34 = ORIENTED_EDGE ( 'NONE', *, *, #3, .T. ) ;
#35 = DIRECTION ( 'NONE',  ( -1.000000000000000000, 0.0000000000000000000, 3.469446951953614189E-15 ) ) ;
#36 = PERSON_AND_ORGANIZATION_ROLE ( 'classification_officer' ) ;
#37 = DIRECTION ( 'NONE',  ( 3.491481338843133355E-15, -0.0000000000000000000, 1.000000000000000000 ) ) ;
#38 = AXIS2_PLACEMENT_3D ( 'NONE', #91, #69, #113 ) ;
#39 = CC_DESIGN_APPROVAL ( #212, ( #210 ) ) ;
#40 = PERSON_AND_ORGANIZATION ( #242, #155 ) ;
#41 = EDGE_LOOP ( 'NONE', ( #20 ) ) ;
#42 = DATE_AND_TIME ( #120, #121 ) ;
#43 = CYLINDRICAL_SURFACE ( 'NONE', #175, 3.000000000000000000 ) ;
#44 = DATE_AND_TIME ( #232, #101 ) ;
#45 = CC_DESIGN_APPROVAL ( #239, ( #68 ) ) ;
#46 = VERTEX_POINT ( 'NONE', #124 ) ;
#47 = CARTESIAN_POINT ( 'NONE',  ( -1.105607223124724385E-30, -1.299999999999999156, -3.166584941539615955E-16 ) ) ;
#48 = EDGE_CURVE ( 'NONE', #50, #50, #132, .T. ) ;
#49 = EDGE_LOOP ( 'NONE', ( #181 ) ) ;
#50 = VERTEX_POINT ( 'NONE', #167 ) ;
#51 = EDGE_LOOP ( 'NONE', ( #1 ) ) ;
#52 = DIRECTION ( 'NONE',  ( -4.275831445896958607E-31, -1.000000000000000000, -1.224646799147353207E-16 ) ) ;
#53 = APPROVAL_PERSON_ORGANIZATION ( #40, #212, #229 ) ;
#54 = EDGE_LOOP ( 'NONE', ( #144 ) ) ;
#55 = PERSON_AND_ORGANIZATION ( #242, #155 ) ;
#56 = FACE_OUTER_BOUND ( 'NONE', #18, .T. ) ;
#57 = CIRCLE ( 'NONE', #38, 3.000000000000000000 ) ;
#58 = DATE_AND_TIME ( #165, #205 ) ;
#59 = CARTESIAN_POINT ( 'NONE',  ( 1.972686956446370283E-13, 2.999999999999993339, 56.49999999999999289 ) ) ;
#60 = EDGE_CURVE ( 'NONE', #6, #6, #233, .T. ) ;
#61 = LOCAL_TIME ( 9, 3, 35.00000000000000000, #118 ) ;
#62 = FACE_OUTER_BOUND ( 'NONE', #41, .T. ) ;
#63 = FACE_BOUND ( 'NONE', #163, .T. ) ;
#64 = CIRCLE ( 'NONE', #195, 1.499999999999997780 ) ;
#65 = EDGE_LOOP ( 'NONE', ( #142 ) ) ;
#66 = FACE_OUTER_BOUND ( 'NONE', #65, .T. ) ;
#67 = DIRECTION ( 'NONE',  ( 0.0000000000000000000, 0.0000000000000000000, 1.000000000000000000 ) ) ;
#68 = SECURITY_CLASSIFICATION ( '', '', #112 ) ;
#69 = DIRECTION ( 'NONE',  ( -3.491481338843133355E-15, 1.224646799147353207E-16, -1.000000000000000000 ) ) ;
#70 = ORIENTED_EDGE ( 'NONE', *, *, #218, .T. ) ;
#71 = CARTESIAN_POINT ( 'NONE',  ( 1.990144363140586139E-13, 1.874699728327311610E-32, 57.00000000000000000 ) ) ;
#72 = CARTESIAN_POINT ( 'NONE',  ( 2.793185071074506684E-14, 2.249639673992785317E-32, 8.000000000000000000 ) ) ;
#73 = APPROVAL_DATE_TIME ( #42, #212 ) ;
#74 = CYLINDRICAL_SURFACE ( 'NONE', #105, 1.499999999999999112 ) ;
#75 = CARTESIAN_POINT ( 'NONE',  ( 1.500000000000025757, 0.0000000000000000000, 7.999999999999992895 ) ) ;
#76 = CLOSED_SHELL ( 'NONE', ( #141, #188, #11, #177, #21 ) ) ;
#77 = PERSON_AND_ORGANIZATION ( #242, #155 ) ;
#78 = PRODUCT_RELATED_PRODUCT_CATEGORY ( 'detail', '', ( #164 ) ) ;
#79 = VERTEX_POINT ( 'NONE', #47 ) ;
#80 =( NAMED_UNIT ( * ) SI_UNIT ( $, .STERADIAN. ) SOLID_ANGLE_UNIT ( ) );
#81 = CC_DESIGN_PERSON_AND_ORGANIZATION_ASSIGNMENT ( #55, #204, ( #210 ) ) ;
#82 = VERTEX_POINT ( 'NONE', #59 ) ;
#83 = DIRECTION ( 'NONE',  ( 4.275831445896959482E-31, 1.000000000000000000, 1.224646799147353207E-16 ) ) ;
#84 = APPROVAL_STATUS ( 'not_yet_approved' ) ;
#85 = ADVANCED_FACE ( 'NONE', ( #147 ), #2, .T. ) ;
#86 = AXIS2_PLACEMENT_3D ( 'NONE', #28, #136, #139 ) ;
#87 = DIRECTION ( 'NONE',  ( 4.275831445896958607E-31, 1.000000000000000000, 1.224646799147353207E-16 ) ) ;
#88 = EDGE_LOOP ( 'NONE', ( #34 ) ) ;
#89 = EDGE_LOOP ( 'NONE', ( #109 ) ) ;
#90 = SHAPE_DEFINITION_REPRESENTATION ( #225, #10 ) ;
#91 = CARTESIAN_POINT ( 'NONE',  ( 1.972686956446370283E-13, -6.919254415182544548E-15, 56.49999999999999289 ) ) ;
#92 = COORDINATED_UNIVERSAL_TIME_OFFSET ( 1, 0, .AHEAD. ) ;
#93 = DIRECTION ( 'NONE',  ( -3.491481338843133355E-15, 1.224646799147353207E-16, -1.000000000000000000 ) ) ;
#94 = PERSON_AND_ORGANIZATION ( #242, #155 ) ;
#95 = FACE_BOUND ( 'NONE', #88, .T. ) ;
#96 = DIRECTION ( 'NONE',  ( -4.493836536903550616E-31, -1.000000000000000000, -1.264902534566421922E-16 ) ) ;
#97 = TOROIDAL_SURFACE ( 'NONE', #228, 9.499999999999998224, 8.000000000000000000 ) ;
#98 = CC_DESIGN_APPROVAL ( #207, ( #198 ) ) ;
#99 = AXIS2_PLACEMENT_3D ( 'NONE', #71, #241, #87 ) ;
#100 = CONICAL_SURFACE ( 'NONE', #86, 1.500000000000000000, 0.7853981633974517207 ) ;
#101 = LOCAL_TIME ( 9, 3, 35.00000000000000000, #92 ) ;
#102 = FACE_OUTER_BOUND ( 'NONE', #51, .T. ) ;
#103 = CARTESIAN_POINT ( 'NONE',  ( -5.528036115623621924E-31, 1.928319267689511269E-32, -1.583292470769807977E-16 ) ) ;
#104 = DIRECTION ( 'NONE',  ( 1.000000000000000000, 0.0000000000000000000, 0.0000000000000000000 ) ) ;
#105 = AXIS2_PLACEMENT_3D ( 'NONE', #129, #37, #200 ) ;
#106 = CC_DESIGN_DATE_AND_TIME_ASSIGNMENT ( #44, #25, ( #68 ) ) ;
#107 = CIRCLE ( 'NONE', #171, 1.500000000000000000 ) ;
#108 = EDGE_LOOP ( 'NONE', ( #201 ) ) ;
#109 = ORIENTED_EDGE ( 'NONE', *, *, #191, .F. ) ;
#110 = COORDINATED_UNIVERSAL_TIME_OFFSET ( 1, 0, .AHEAD. ) ;
#111 = CARTESIAN_POINT ( 'NONE',  ( 2.793185071074506053E-14, 0.0000000000000000000, 7.999999999999998224 ) ) ;
#112 = SECURITY_CLASSIFICATION_LEVEL ( 'unclassified' ) ;
#113 = DIRECTION ( 'NONE',  ( 0.0000000000000000000, 1.000000000000000000, 0.0000000000000000000 ) ) ;
#114 = AXIS2_PLACEMENT_3D ( 'NONE', #33, #187, #231 ) ;
#115 = CC_DESIGN_PERSON_AND_ORGANIZATION_ASSIGNMENT ( #125, #180, ( #164 ) ) ;
#116 = PERSON_AND_ORGANIZATION_ROLE ( 'creator' ) ;
#117 = DIRECTION ( 'NONE',  ( 3.491481338843133355E-15, -0.0000000000000000000, 1.000000000000000000 ) ) ;
#118 = COORDINATED_UNIVERSAL_TIME_OFFSET ( 1, 0, .AHEAD. ) ;
#119 = DIRECTION ( 'NONE',  ( 3.491481338843133355E-15, -0.0000000000000000000, 1.000000000000000000 ) ) ;
#120 = CALENDAR_DATE ( 2021, 17, 11 ) ;
#121 = LOCAL_TIME ( 9, 3, 35.00000000000000000, #22 ) ;
#122 = CC_DESIGN_DATE_AND_TIME_ASSIGNMENT ( #8, #209, ( #198 ) ) ;
#123 = DIRECTION ( 'NONE',  ( -3.491481338843133355E-15, 1.224646799147353207E-16, -1.000000000000000000 ) ) ;
#124 = CARTESIAN_POINT ( 'NONE',  ( 1.990144363140586139E-13, 2.499999999999992895, 57.00000000000000000 ) ) ;
#125 = PERSON_AND_ORGANIZATION ( #242, #155 ) ;
#126 = CC_DESIGN_PERSON_AND_ORGANIZATION_ASSIGNMENT ( #77, #116, ( #210 ) ) ;
#127 = PLANE ( 'NONE',  #114 ) ;
#128 = CC_DESIGN_SECURITY_CLASSIFICATION ( #68, ( #210 ) ) ;
#129 = CARTESIAN_POINT ( 'NONE',  ( -6.413747168845438786E-31, 0.0000000000000000000, -1.836970198721029934E-16 ) ) ;
#130 = CARTESIAN_POINT ( 'NONE',  ( 1.990144363140586139E-13, -6.980486755139912911E-15, 57.00000000000000000 ) ) ;
#131 = FACE_OUTER_BOUND ( 'NONE', #161, .T. ) ;
#132 = CIRCLE ( 'NONE', #14, 3.000000000000000000 ) ;
#133 = VERTEX_POINT ( 'NONE', #235 ) ;
#134 = DIRECTION ( 'NONE',  ( -3.491481338843133355E-15, 1.224646799147353207E-16, -1.000000000000000000 ) ) ;
#135 = EDGE_CURVE ( 'NONE', #82, #82, #57, .T. ) ;
#136 = DIRECTION ( 'NONE',  ( 3.491481338843133355E-15, -1.217917285207545432E-16, 1.000000000000000000 ) ) ;
#137 = CARTESIAN_POINT ( 'NONE',  ( 2.793185071074506684E-14, 0.0000000000000000000, 8.000000000000000000 ) ) ;
#138 = ADVANCED_FACE ( 'NONE', ( #220 ), #127, .T. ) ;
#139 = DIRECTION ( 'NONE',  ( -4.493836536903550616E-31, -1.000000000000000000, -1.264902534566421922E-16 ) ) ;
#140 = ORIENTED_EDGE ( 'NONE', *, *, #3, .F. ) ;
#141 = ADVANCED_FACE ( 'NONE', ( #102, #237 ), #43, .T. ) ;
#142 = ORIENTED_EDGE ( 'NONE', *, *, #48, .F. ) ;
#143 = AXIS2_PLACEMENT_3D ( 'NONE', #103, #149, #217 ) ;
#144 = ORIENTED_EDGE ( 'NONE', *, *, #154, .F. ) ;
#145 = ORIENTED_EDGE ( 'NONE', *, *, #60, .F. ) ;
#146 = APPROVAL_STATUS ( 'not_yet_approved' ) ;
#147 = FACE_OUTER_BOUND ( 'NONE', #202, .T. ) ;
#148 = APPROVAL_ROLE ( '' ) ;
#149 = DIRECTION ( 'NONE',  ( 3.491481338843133355E-15, -1.217917285207545432E-16, 1.000000000000000000 ) ) ;
#150 = CALENDAR_DATE ( 2021, 17, 11 ) ;
#151 = PERSON_AND_ORGANIZATION ( #242, #155 ) ;
#152 = AXIS2_PLACEMENT_3D ( 'NONE', #130, #93, #160 ) ;
#153 =( LENGTH_UNIT ( ) NAMED_UNIT ( * ) SI_UNIT ( .MILLI., .METRE. ) );
#154 = EDGE_CURVE ( 'NONE', #133, #133, #64, .T. ) ;
#155 = ORGANIZATION ( 'UNSPECIFIED', 'UNSPECIFIED', '' ) ;
#156 = DIRECTION ( 'NONE',  ( 3.491481338843133355E-15, -0.0000000000000000000, 1.000000000000000000 ) ) ;
#157 = PERSON_AND_ORGANIZATION ( #242, #155 ) ;
#158 = CC_DESIGN_PERSON_AND_ORGANIZATION_ASSIGNMENT ( #151, #185, ( #198 ) ) ;
#159 = DIRECTION ( 'NONE',  ( -4.275831445896958607E-31, -1.000000000000000000, -1.224646799147353207E-16 ) ) ;
#160 = DIRECTION ( 'NONE',  ( 0.0000000000000000000, 1.000000000000000000, 0.0000000000000000000 ) ) ;
#161 = EDGE_LOOP ( 'NONE', ( #145 ) ) ;
#162 = CALENDAR_DATE ( 2021, 17, 11 ) ;
#163 = EDGE_LOOP ( 'NONE', ( #70 ) ) ;
#164 = PRODUCT ( '955178', '955178', '', ( #238 ) ) ;
#165 = CALENDAR_DATE ( 2021, 17, 11 ) ;
#166 = FACE_OUTER_BOUND ( 'NONE', #54, .T. ) ;
#167 = CARTESIAN_POINT ( 'NONE',  ( -2.999999999999956035, 0.0000000000000000000, 12.66368952654442204 ) ) ;
#168 = APPROVAL_ROLE ( '' ) ;
#169 = CARTESIAN_POINT ( 'NONE',  ( 6.982962677686246003E-16, -2.435834570415083531E-17, 0.1999999999999994005 ) ) ;
#170 = CONICAL_SURFACE ( 'NONE', #236, 3.000000000000000000, 0.7853981633974410625 ) ;
#171 = AXIS2_PLACEMENT_3D ( 'NONE', #169, #24, #96 ) ;
#172 = APPROVAL_STATUS ( 'not_yet_approved' ) ;
#173 = ADVANCED_FACE ( 'NONE', ( #63, #211 ), #100, .T. ) ;
#174 = CIRCLE ( 'NONE', #152, 2.500000000000000000 ) ;
#175 = AXIS2_PLACEMENT_3D ( 'NONE', #13, #134, #83 ) ;
#176 = VERTEX_POINT ( 'NONE', #216 ) ;
#177 = ADVANCED_FACE ( 'NONE', ( #66, #178 ), #97, .F. ) ;
#178 = FACE_OUTER_BOUND ( 'NONE', #108, .T. ) ;
#179 = LOCAL_TIME ( 9, 3, 35.00000000000000000, #110 ) ;
#180 = PERSON_AND_ORGANIZATION_ROLE ( 'design_owner' ) ;
#181 = ORIENTED_EDGE ( 'NONE', *, *, #218, .F. ) ;
#182 = CARTESIAN_POINT ( 'NONE',  ( 4.421503566283304632E-14, 0.0000000000000000000, 12.66368952654441138 ) ) ;
#183 = DATE_AND_TIME ( #162, #179 ) ;
#184 = DIRECTION ( 'NONE',  ( 3.491481338843133355E-15, -1.224646799147353207E-16, 1.000000000000000000 ) ) ;
#185 = PERSON_AND_ORGANIZATION_ROLE ( 'creator' ) ;
#186 = ORIENTED_EDGE ( 'NONE', *, *, #48, .T. ) ;
#187 = DIRECTION ( 'NONE',  ( -3.491481338843133355E-15, 1.224646799147353207E-16, -1.000000000000000000 ) ) ;
#188 = ADVANCED_FACE ( 'NONE', ( #95, #62 ), #170, .T. ) ;
#189 = MANIFOLD_SOLID_BREP ( 'Corps-Déplacer/Copier1[1]', #76 ) ;
#190 = CIRCLE ( 'NONE', #143, 1.299999999999999156 ) ;
#191 = EDGE_CURVE ( 'NONE', #176, #176, #107, .T. ) ;
#192 = MANIFOLD_SOLID_BREP ( 'Corps-Déplacer/Copier1[2]', #215 ) ;
#193 =( NAMED_UNIT ( * ) PLANE_ANGLE_UNIT ( ) SI_UNIT ( $, .RADIAN. ) );
#194 = AXIS2_PLACEMENT_3D ( 'NONE', #221, #5, #52 ) ;
#195 = AXIS2_PLACEMENT_3D ( 'NONE', #197, #156, #9 ) ;
#196 = CC_DESIGN_PERSON_AND_ORGANIZATION_ASSIGNMENT ( #4, #36, ( #68 ) ) ;
#197 = CARTESIAN_POINT ( 'NONE',  ( 2.793185071074506053E-14, 0.0000000000000000000, 7.999999999999998224 ) ) ;
#198 = PRODUCT_DEFINITION ( 'UNKNOWN', '', #210, #214 ) ;
#199 = PLANE ( 'NONE',  #194 ) ;
#200 = DIRECTION ( 'NONE',  ( 1.000000000000000000, 0.0000000000000000000, -3.491481338843133355E-15 ) ) ;
#201 = ORIENTED_EDGE ( 'NONE', *, *, #154, .T. ) ;
#202 = EDGE_LOOP ( 'NONE', ( #206 ) ) ;
#203 = AXIS2_PLACEMENT_3D ( 'NONE', #72, #184, #159 ) ;
#204 = PERSON_AND_ORGANIZATION_ROLE ( 'design_supplier' ) ;
#205 = LOCAL_TIME ( 9, 3, 35.00000000000000000, #226 ) ;
#206 = ORIENTED_EDGE ( 'NONE', *, *, #60, .T. ) ;
#207 = APPROVAL ( #84, 'UNSPECIFIED' ) ;
#208 = CARTESIAN_POINT ( 'NONE',  ( 1.972686956446370283E-13, -6.919254415182544548E-15, 56.49999999999999289 ) ) ;
#209 = DATE_TIME_ROLE ( 'creation_date' ) ;
#210 = PRODUCT_DEFINITION_FORMATION_WITH_SPECIFIED_SOURCE ( 'ANY', '', #164, .NOT_KNOWN. ) ;
#211 = FACE_OUTER_BOUND ( 'NONE', #89, .T. ) ;
#212 = APPROVAL ( #172, 'UNSPECIFIED' ) ;
#213 = DIRECTION ( 'NONE',  ( 0.0000000000000000000, 1.000000000000000000, 0.0000000000000000000 ) ) ;
#214 = DESIGN_CONTEXT ( 'detailed design', #32, 'design' ) ;
#215 = CLOSED_SHELL ( 'NONE', ( #30, #85, #173, #138 ) ) ;
#216 = CARTESIAN_POINT ( 'NONE',  ( 6.982962677686240087E-16, -1.500000000000000000, 0.1999999999999992339 ) ) ;
#217 = DIRECTION ( 'NONE',  ( -4.252335473556634944E-31, -1.000000000000000000, -1.217917285207545432E-16 ) ) ;
#218 = EDGE_CURVE ( 'NONE', #79, #79, #190, .T. ) ;
#219 = AXIS2_PLACEMENT_3D ( 'NONE', #111, #117, #17 ) ;
#220 = FACE_OUTER_BOUND ( 'NONE', #49, .T. ) ;
#221 = CARTESIAN_POINT ( 'NONE',  ( 2.793185071074506684E-14, 2.249639673992785317E-32, 8.000000000000000000 ) ) ;
#222 = APPROVAL_PERSON_ORGANIZATION ( #157, #207, #148 ) ;
#223 = PLANE ( 'NONE',  #99 ) ;
#224 = ORIENTED_EDGE ( 'NONE', *, *, #191, .T. ) ;
#225 = PRODUCT_DEFINITION_SHAPE ( 'NONE', 'NONE',  #198 ) ;
#226 = COORDINATED_UNIVERSAL_TIME_OFFSET ( 1, 0, .AHEAD. ) ;
#227 = EDGE_LOOP ( 'NONE', ( #140 ) ) ;
#228 = AXIS2_PLACEMENT_3D ( 'NONE', #137, #119, #234 ) ;
#229 = APPROVAL_ROLE ( '' ) ;
#230 = AXIS2_PLACEMENT_3D ( 'NONE', #31, #67, #104 ) ;
#231 = DIRECTION ( 'NONE',  ( 4.275831445896958607E-31, 1.000000000000000000, 1.224646799147353207E-16 ) ) ;
#232 = CALENDAR_DATE ( 2021, 17, 11 ) ;
#233 = CIRCLE ( 'NONE', #219, 1.499999999999997780 ) ;
#234 = DIRECTION ( 'NONE',  ( 1.000000000000000000, 0.0000000000000000000, -3.491481338843133750E-15 ) ) ;
#235 = CARTESIAN_POINT ( 'NONE',  ( 1.500000000000025757, 0.0000000000000000000, 7.999999999999992895 ) ) ;
#236 = AXIS2_PLACEMENT_3D ( 'NONE', #208, #123, #213 ) ;
#237 = FACE_OUTER_BOUND ( 'NONE', #23, .T. ) ;
#238 = MECHANICAL_CONTEXT ( 'NONE', #16, 'mechanical' ) ;
#239 = APPROVAL ( #146, 'UNSPECIFIED' ) ;
#240 = APPROVAL_PERSON_ORGANIZATION ( #94, #239, #168 ) ;
#241 = DIRECTION ( 'NONE',  ( -3.491481338843133355E-15, 1.224646799147353207E-16, -1.000000000000000000 ) ) ;
#242 = PERSON ( 'UNSPECIFIED', 'UNSPECIFIED', 'UNSPECIFIED', ('UNSPECIFIED'), ('UNSPECIFIED'), ('UNSPECIFIED') ) ;
#243 = FACE_OUTER_BOUND ( 'NONE', #227, .T. ) ;
ENDSEC;
END-ISO-10303-21;
