ISO-10303-21;
HEADER;
FILE_DESCRIPTION (( 'STEP AP203' ),
    '1' );
FILE_NAME ('955093.step',
    '2021-11-17T08:26:59',
    ( '' ),
    ( '' ),
    'SwSTEP 2.0',
    'SolidWorks 2019',
    '' );
FILE_SCHEMA (( 'CONFIG_CONTROL_DESIGN' ));
ENDSEC;

DATA;
#1 = APPLICATION_CONTEXT ( 'configuration controlled 3d designs of mechanical parts and assemblies' ) ;
#2 = CC_DESIGN_PERSON_AND_ORGANIZATION_ASSIGNMENT ( #21, #52, ( #107 ) ) ;
#3 = DIRECTION ( 'NONE',  ( 0.0000000000000000000, 1.000000000000000000, 0.0000000000000000000 ) ) ;
#4 = AXIS2_PLACEMENT_3D ( 'NONE', #217, #189, #61 ) ;
#5 = APPROVAL_STATUS ( 'not_yet_approved' ) ;
#6 = ORIENTED_EDGE ( 'NONE', *, *, #192, .T. ) ;
#7 = PERSON_AND_ORGANIZATION ( #164, #36 ) ;
#8 = EDGE_CURVE ( 'NONE', #169, #169, #191, .T. ) ;
#9 = CLOSED_SHELL ( 'NONE', ( #129, #101, #91, #17 ) ) ;
#10 = CARTESIAN_POINT ( 'NONE',  ( 6.982962677686260794E-16, -2.435834570415088769E-17, 0.1999999999999998168 ) ) ;
#11 = EDGE_CURVE ( 'NONE', #219, #219, #116, .T. ) ;
#12 = DIRECTION ( 'NONE',  ( -4.275831445896958607E-31, -1.000000000000000000, -1.224646799147353207E-16 ) ) ;
#13 = DIRECTION ( 'NONE',  ( -3.491481338843133355E-15, 1.224646799147353207E-16, -1.000000000000000000 ) ) ;
#14 = APPROVAL_PERSON_ORGANIZATION ( #7, #92, #73 ) ;
#15 = CARTESIAN_POINT ( 'NONE',  ( 2.513866563967056016E-13, 4.499999999999992006, 72.00000000000000000 ) ) ;
#16 = CARTESIAN_POINT ( 'NONE',  ( 6.982962677686260794E-16, -2.435834570415088769E-17, 0.1999999999999998168 ) ) ;
#17 = ADVANCED_FACE ( 'NONE', ( #144 ), #172, .F. ) ;
#18 = VERTEX_POINT ( 'NONE', #71 ) ;
#19 = AXIS2_PLACEMENT_3D ( 'NONE', #134, #168, #89 ) ;
#20 = CARTESIAN_POINT ( 'NONE',  ( 0.0000000000000000000, 0.0000000000000000000, 0.0000000000000000000 ) ) ;
#21 = PERSON_AND_ORGANIZATION ( #164, #36 ) ;
#22 = ORIENTED_EDGE ( 'NONE', *, *, #72, .T. ) ;
#23 = CALENDAR_DATE ( 2021, 17, 11 ) ;
#24 = CC_DESIGN_APPROVAL ( #176, ( #107 ) ) ;
#25 = CALENDAR_DATE ( 2021, 17, 11 ) ;
#26 = DIRECTION ( 'NONE',  ( 3.491481338843133355E-15, -1.217917285207545432E-16, 1.000000000000000000 ) ) ;
#27 = EDGE_LOOP ( 'NONE', ( #215 ) ) ;
#28 = DIRECTION ( 'NONE',  ( 4.275831445896958607E-31, 1.000000000000000000, 1.224646799147353207E-16 ) ) ;
#29 = CIRCLE ( 'NONE', #200, 5.000000000000000000 ) ;
#30 = DIRECTION ( 'NONE',  ( -4.237045877651918877E-31, -1.000000000000000000, -1.192622389734054877E-16 ) ) ;
#31 = DIRECTION ( 'NONE',  ( -4.237045877651918877E-31, -1.000000000000000000, -1.192622389734054877E-16 ) ) ;
#32 = CARTESIAN_POINT ( 'NONE',  ( 6.982962677686240087E-16, -5.000000000000000000, 0.1999999999999992339 ) ) ;
#33 = DIRECTION ( 'NONE',  ( -3.491481338843133355E-15, 1.224646799147353207E-16, -1.000000000000000000 ) ) ;
#34 = PERSON_AND_ORGANIZATION_ROLE ( 'design_owner' ) ;
#35 = ADVANCED_FACE ( 'NONE', ( #65 ), #218, .T. ) ;
#36 = ORGANIZATION ( 'UNSPECIFIED', 'UNSPECIFIED', '' ) ;
#37 = APPROVAL_ROLE ( '' ) ;
#38 = PERSON_AND_ORGANIZATION_ROLE ( 'classification_officer' ) ;
#39 = DESIGN_CONTEXT ( 'detailed design', #1, 'design' ) ;
#40 = EDGE_LOOP ( 'NONE', ( #131 ) ) ;
#41 = COORDINATED_UNIVERSAL_TIME_OFFSET ( 1, 0, .AHEAD. ) ;
#42 = CC_DESIGN_PERSON_AND_ORGANIZATION_ASSIGNMENT ( #51, #38, ( #112 ) ) ;
#43 = CYLINDRICAL_SURFACE ( 'NONE', #67, 4.999999999999999112 ) ;
#44 = FACE_OUTER_BOUND ( 'NONE', #108, .T. ) ;
#45 = CARTESIAN_POINT ( 'NONE',  ( 7.681258945454893382E-14, 4.999999999999997335, 22.00000000000000000 ) ) ;
#46 = CARTESIAN_POINT ( 'NONE',  ( -1.068957861474239564E-30, 3.749399456654644020E-32, -3.061616997868383141E-16 ) ) ;
#47 = AXIS2_PLACEMENT_3D ( 'NONE', #197, #110, #3 ) ;
#48 = PERSON_AND_ORGANIZATION ( #164, #36 ) ;
#49 =( NAMED_UNIT ( * ) SI_UNIT ( $, .STERADIAN. ) SOLID_ANGLE_UNIT ( ) );
#50 = LOCAL_TIME ( 9, 26, 59.00000000000000000, #149 ) ;
#51 = PERSON_AND_ORGANIZATION ( #164, #36 ) ;
#52 = PERSON_AND_ORGANIZATION_ROLE ( 'creator' ) ;
#53 = PERSON_AND_ORGANIZATION ( #164, #36 ) ;
#54 = ORIENTED_EDGE ( 'NONE', *, *, #192, .F. ) ;
#55 = CC_DESIGN_PERSON_AND_ORGANIZATION_ASSIGNMENT ( #143, #125, ( #181 ) ) ;
#56 = ORIENTED_EDGE ( 'NONE', *, *, #11, .F. ) ;
#57 = CALENDAR_DATE ( 2021, 17, 11 ) ;
#58 = CIRCLE ( 'NONE', #209, 4.999999999999999112 ) ;
#59 = CIRCLE ( 'NONE', #206, 5.000000000000000000 ) ;
#60 = EDGE_LOOP ( 'NONE', ( #150 ) ) ;
#61 = DIRECTION ( 'NONE',  ( 0.0000000000000000000, 1.000000000000000000, 0.0000000000000000000 ) ) ;
#62 = FACE_OUTER_BOUND ( 'NONE', #60, .T. ) ;
#63 = CARTESIAN_POINT ( 'NONE',  ( -4.082242054614368845E-30, -4.799999999999998934, -1.169200593799243300E-15 ) ) ;
#64 = ADVANCED_FACE ( 'NONE', ( #137 ), #87, .T. ) ;
#65 = FACE_OUTER_BOUND ( 'NONE', #80, .T. ) ;
#66 = PLANE ( 'NONE',  #111 ) ;
#67 = AXIS2_PLACEMENT_3D ( 'NONE', #204, #100, #190 ) ;
#68 = PRODUCT_RELATED_PRODUCT_CATEGORY ( 'detail', '', ( #148 ) ) ;
#69 = CC_DESIGN_SECURITY_CLASSIFICATION ( #112, ( #181 ) ) ;
#70 = DIRECTION ( 'NONE',  ( 1.000000000000000000, 0.0000000000000000000, 0.0000000000000000000 ) ) ;
#71 = CARTESIAN_POINT ( 'NONE',  ( 2.496409157272840412E-13, 4.999999999999990230, 71.50000000000000000 ) ) ;
#72 = EDGE_CURVE ( 'NONE', #202, #202, #29, .T. ) ;
#73 = APPROVAL_ROLE ( '' ) ;
#74 = DIRECTION ( 'NONE',  ( -4.252335473556634944E-31, -1.000000000000000000, -1.217917285207545432E-16 ) ) ;
#75 = CC_DESIGN_PERSON_AND_ORGANIZATION_ASSIGNMENT ( #48, #34, ( #148 ) ) ;
#76 = APPROVAL_PERSON_ORGANIZATION ( #109, #121, #37 ) ;
#77 = DATE_AND_TIME ( #162, #85 ) ;
#78 = EDGE_LOOP ( 'NONE', ( #56 ) ) ;
#79 = COORDINATED_UNIVERSAL_TIME_OFFSET ( 1, 0, .AHEAD. ) ;
#80 = EDGE_LOOP ( 'NONE', ( #178 ) ) ;
#81 = PRODUCT_DEFINITION_SHAPE ( 'NONE', 'NONE',  #107 ) ;
#82 = PERSON_AND_ORGANIZATION_ROLE ( 'design_supplier' ) ;
#83 = EDGE_LOOP ( 'NONE', ( #175 ) ) ;
#84 = AXIS2_PLACEMENT_3D ( 'NONE', #183, #26, #74 ) ;
#85 = LOCAL_TIME ( 9, 26, 59.00000000000000000, #41 ) ;
#86 = FACE_OUTER_BOUND ( 'NONE', #40, .T. ) ;
#87 = PLANE ( 'NONE',  #173 ) ;
#88 = CARTESIAN_POINT ( 'NONE',  ( 7.681258945454893382E-14, 4.999999999999997335, 22.00000000000000000 ) ) ;
#89 = DIRECTION ( 'NONE',  ( 4.275831445896958607E-31, 1.000000000000000000, 1.224646799147353207E-16 ) ) ;
#90 = FACE_OUTER_BOUND ( 'NONE', #160, .T. ) ;
#91 = ADVANCED_FACE ( 'NONE', ( #119, #154 ), #157, .T. ) ;
#92 = APPROVAL ( #5, 'UNSPECIFIED' ) ;
#93 = AXIS2_PLACEMENT_3D ( 'NONE', #220, #203, #12 ) ;
#94 = CC_DESIGN_APPROVAL ( #121, ( #112 ) ) ;
#95 = APPROVAL_STATUS ( 'not_yet_approved' ) ;
#96 = COORDINATED_UNIVERSAL_TIME_OFFSET ( 1, 0, .AHEAD. ) ;
#97 = APPROVAL_DATE_TIME ( #161, #92 ) ;
#98 = CARTESIAN_POINT ( 'NONE',  ( 7.681258945454893382E-14, -2.694222958124176809E-15, 22.00000000000000000 ) ) ;
#99 = CIRCLE ( 'NONE', #4, 4.500000000000000888 ) ;
#100 = DIRECTION ( 'NONE',  ( -3.491481338843133355E-15, 1.224646799147353207E-16, -1.000000000000000000 ) ) ;
#101 = ADVANCED_FACE ( 'NONE', ( #62, #187 ), #43, .T. ) ;
#102 = DIRECTION ( 'NONE',  ( 0.0000000000000000000, 1.000000000000000000, 0.0000000000000000000 ) ) ;
#103 = CYLINDRICAL_SURFACE ( 'NONE', #106, 5.000000000000000000 ) ;
#104 = CARTESIAN_POINT ( 'NONE',  ( 0.0000000000000000000, 0.0000000000000000000, 0.0000000000000000000 ) ) ;
#105 =( NAMED_UNIT ( * ) PLANE_ANGLE_UNIT ( ) SI_UNIT ( $, .RADIAN. ) );
#106 = AXIS2_PLACEMENT_3D ( 'NONE', #104, #33, #28 ) ;
#107 = PRODUCT_DEFINITION ( 'UNKNOWN', '', #181, #39 ) ;
#108 = EDGE_LOOP ( 'NONE', ( #22 ) ) ;
#109 = PERSON_AND_ORGANIZATION ( #164, #36 ) ;
#110 = DIRECTION ( 'NONE',  ( -3.491481338843133355E-15, 1.224646799147353207E-16, -1.000000000000000000 ) ) ;
#111 = AXIS2_PLACEMENT_3D ( 'NONE', #185, #156, #115 ) ;
#112 = SECURITY_CLASSIFICATION ( '', '', #130 ) ;
#113 = APPROVAL_ROLE ( '' ) ;
#114 = CARTESIAN_POINT ( 'NONE',  ( 2.496409157272840412E-13, -8.756224613903574137E-15, 71.50000000000000000 ) ) ;
#115 = DIRECTION ( 'NONE',  ( -4.275831445896958607E-31, -1.000000000000000000, -1.224646799147353207E-16 ) ) ;
#116 = CIRCLE ( 'NONE', #84, 4.799999999999998934 ) ;
#117 = DIRECTION ( 'NONE',  ( 4.275831445896958607E-31, 1.000000000000000000, 1.224646799147353207E-16 ) ) ;
#118 = VERTEX_POINT ( 'NONE', #32 ) ;
#119 = FACE_BOUND ( 'NONE', #216, .T. ) ;
#120 = DIRECTION ( 'NONE',  ( 0.0000000000000000000, 0.0000000000000000000, 1.000000000000000000 ) ) ;
#121 = APPROVAL ( #95, 'UNSPECIFIED' ) ;
#122 = APPROVAL_PERSON_ORGANIZATION ( #53, #176, #113 ) ;
#123 = DATE_TIME_ROLE ( 'classification_date' ) ;
#124 = ADVANCED_BREP_SHAPE_REPRESENTATION ( '955093', ( #199, #126, #223 ), #135 ) ;
#125 = PERSON_AND_ORGANIZATION_ROLE ( 'creator' ) ;
#126 = MANIFOLD_SOLID_BREP ( 'Corps-Déplacer/Copier1[2]', #174 ) ;
#127 = APPLICATION_PROTOCOL_DEFINITION ( 'international standard', 'config_control_design', 1994, #1 ) ;
#128 = EDGE_LOOP ( 'NONE', ( #54 ) ) ;
#129 = ADVANCED_FACE ( 'NONE', ( #90 ), #66, .F. ) ;
#130 = SECURITY_CLASSIFICATION_LEVEL ( 'unclassified' ) ;
#131 = ORIENTED_EDGE ( 'NONE', *, *, #151, .F. ) ;
#132 = AXIS2_PLACEMENT_3D ( 'NONE', #16, #222, #31 ) ;
#133 = ADVANCED_FACE ( 'NONE', ( #44, #155 ), #103, .T. ) ;
#134 = CARTESIAN_POINT ( 'NONE',  ( 2.513866563967056016E-13, 3.374459510989167028E-32, 72.00000000000000000 ) ) ;
#135 =( GEOMETRIC_REPRESENTATION_CONTEXT ( 3 ) GLOBAL_UNCERTAINTY_ASSIGNED_CONTEXT ( ( #179 ) ) GLOBAL_UNIT_ASSIGNED_CONTEXT ( ( #205, #105, #49 ) ) REPRESENTATION_CONTEXT ( 'NONE', 'WORKASPACE' ) );
#136 = DIRECTION ( 'NONE',  ( 0.0000000000000000000, 1.000000000000000000, 0.0000000000000000000 ) ) ;
#137 = FACE_OUTER_BOUND ( 'NONE', #78, .T. ) ;
#138 = CARTESIAN_POINT ( 'NONE',  ( 2.496409157272840412E-13, -8.756224613903574137E-15, 71.50000000000000000 ) ) ;
#139 = LOCAL_TIME ( 9, 26, 59.00000000000000000, #213 ) ;
#140 = CC_DESIGN_DATE_AND_TIME_ASSIGNMENT ( #207, #210, ( #107 ) ) ;
#141 = LOCAL_TIME ( 9, 26, 59.00000000000000000, #79 ) ;
#142 = APPLICATION_PROTOCOL_DEFINITION ( 'international standard', 'config_control_design', 1994, #212 ) ;
#143 = PERSON_AND_ORGANIZATION ( #164, #36 ) ;
#144 = FACE_OUTER_BOUND ( 'NONE', #128, .T. ) ;
#145 = APPROVAL_DATE_TIME ( #208, #176 ) ;
#146 = ORIENTED_EDGE ( 'NONE', *, *, #193, .F. ) ;
#147 = EDGE_LOOP ( 'NONE', ( #146 ) ) ;
#148 = PRODUCT ( '955093', '955093', '', ( #159 ) ) ;
#149 = COORDINATED_UNIVERSAL_TIME_OFFSET ( 1, 0, .AHEAD. ) ;
#150 = ORIENTED_EDGE ( 'NONE', *, *, #193, .T. ) ;
#151 = EDGE_CURVE ( 'NONE', #118, #118, #59, .T. ) ;
#152 = DIRECTION ( 'NONE',  ( -3.491481338843133355E-15, 1.224646799147353207E-16, -1.000000000000000000 ) ) ;
#153 = DIRECTION ( 'NONE',  ( -3.491481338843133355E-15, 1.224646799147353207E-16, -1.000000000000000000 ) ) ;
#154 = FACE_OUTER_BOUND ( 'NONE', #147, .T. ) ;
#155 = FACE_OUTER_BOUND ( 'NONE', #166, .T. ) ;
#156 = DIRECTION ( 'NONE',  ( 3.491481338843133355E-15, -1.224646799147353207E-16, 1.000000000000000000 ) ) ;
#157 = CONICAL_SURFACE ( 'NONE', #171, 4.999999999999999112, 0.7853981633974466137 ) ;
#158 = ADVANCED_FACE ( 'NONE', ( #201, #86 ), #186, .T. ) ;
#159 = MECHANICAL_CONTEXT ( 'NONE', #212, 'mechanical' ) ;
#160 = EDGE_LOOP ( 'NONE', ( #211 ) ) ;
#161 = DATE_AND_TIME ( #57, #141 ) ;
#162 = CALENDAR_DATE ( 2021, 17, 11 ) ;
#163 = CC_DESIGN_DATE_AND_TIME_ASSIGNMENT ( #195, #123, ( #112 ) ) ;
#164 = PERSON ( 'UNSPECIFIED', 'UNSPECIFIED', 'UNSPECIFIED', ('UNSPECIFIED'), ('UNSPECIFIED'), ('UNSPECIFIED') ) ;
#165 = CALENDAR_DATE ( 2021, 17, 11 ) ;
#166 = EDGE_LOOP ( 'NONE', ( #214 ) ) ;
#167 = DIRECTION ( 'NONE',  ( 3.491481338843133355E-15, -1.217917285207545432E-16, 1.000000000000000000 ) ) ;
#168 = DIRECTION ( 'NONE',  ( -3.491481338843133355E-15, 1.224646799147353207E-16, -1.000000000000000000 ) ) ;
#169 = VERTEX_POINT ( 'NONE', #88 ) ;
#170 = VERTEX_POINT ( 'NONE', #15 ) ;
#171 = AXIS2_PLACEMENT_3D ( 'NONE', #114, #152, #198 ) ;
#172 = PLANE ( 'NONE',  #19 ) ;
#173 = AXIS2_PLACEMENT_3D ( 'NONE', #46, #188, #117 ) ;
#174 = CLOSED_SHELL ( 'NONE', ( #133, #35, #158, #64 ) ) ;
#175 = ORIENTED_EDGE ( 'NONE', *, *, #8, .F. ) ;
#176 = APPROVAL ( #180, 'UNSPECIFIED' ) ;
#177 = SHAPE_DEFINITION_REPRESENTATION ( #81, #124 ) ;
#178 = ORIENTED_EDGE ( 'NONE', *, *, #72, .F. ) ;
#179 = UNCERTAINTY_MEASURE_WITH_UNIT (LENGTH_MEASURE( 1.000000000000000082E-05 ), #205, 'distance_accuracy_value', 'NONE');
#180 = APPROVAL_STATUS ( 'not_yet_approved' ) ;
#181 = PRODUCT_DEFINITION_FORMATION_WITH_SPECIFIED_SOURCE ( 'ANY', '', #148, .NOT_KNOWN. ) ;
#182 = LOCAL_TIME ( 9, 26, 59.00000000000000000, #96 ) ;
#183 = CARTESIAN_POINT ( 'NONE',  ( -2.041121027307184423E-30, 7.119948065315121647E-32, -5.846002968996216498E-16 ) ) ;
#184 = APPROVAL_DATE_TIME ( #77, #121 ) ;
#185 = CARTESIAN_POINT ( 'NONE',  ( 7.681258945454893382E-14, 3.749399456654640188E-32, 22.00000000000000000 ) ) ;
#186 = CONICAL_SURFACE ( 'NONE', #132, 5.000000000000000000, 0.7853981633974507215 ) ;
#187 = FACE_OUTER_BOUND ( 'NONE', #83, .T. ) ;
#188 = DIRECTION ( 'NONE',  ( -3.491481338843133355E-15, 1.224646799147353207E-16, -1.000000000000000000 ) ) ;
#189 = DIRECTION ( 'NONE',  ( -3.491481338843133355E-15, 1.224646799147353207E-16, -1.000000000000000000 ) ) ;
#190 = DIRECTION ( 'NONE',  ( 4.275831445896958607E-31, 1.000000000000000000, 1.224646799147353207E-16 ) ) ;
#191 = CIRCLE ( 'NONE', #47, 5.000000000000000000 ) ;
#192 = EDGE_CURVE ( 'NONE', #170, #170, #99, .T. ) ;
#193 = EDGE_CURVE ( 'NONE', #18, #18, #58, .T. ) ;
#194 = PERSON_AND_ORGANIZATION ( #164, #36 ) ;
#195 = DATE_AND_TIME ( #23, #182 ) ;
#196 = CC_DESIGN_APPROVAL ( #92, ( #181 ) ) ;
#197 = CARTESIAN_POINT ( 'NONE',  ( 7.681258945454893382E-14, -2.694222958124176809E-15, 22.00000000000000000 ) ) ;
#198 = DIRECTION ( 'NONE',  ( 0.0000000000000000000, 1.000000000000000000, 0.0000000000000000000 ) ) ;
#199 = MANIFOLD_SOLID_BREP ( 'Corps-Déplacer/Copier1[1]', #9 ) ;
#200 = AXIS2_PLACEMENT_3D ( 'NONE', #98, #153, #136 ) ;
#201 = FACE_BOUND ( 'NONE', #27, .T. ) ;
#202 = VERTEX_POINT ( 'NONE', #45 ) ;
#203 = DIRECTION ( 'NONE',  ( 3.491481338843133355E-15, -1.224646799147353207E-16, 1.000000000000000000 ) ) ;
#204 = CARTESIAN_POINT ( 'NONE',  ( 0.0000000000000000000, 0.0000000000000000000, 0.0000000000000000000 ) ) ;
#205 =( LENGTH_UNIT ( ) NAMED_UNIT ( * ) SI_UNIT ( .MILLI., .METRE. ) );
#206 = AXIS2_PLACEMENT_3D ( 'NONE', #10, #167, #30 ) ;
#207 = DATE_AND_TIME ( #25, #50 ) ;
#208 = DATE_AND_TIME ( #165, #139 ) ;
#209 = AXIS2_PLACEMENT_3D ( 'NONE', #138, #13, #102 ) ;
#210 = DATE_TIME_ROLE ( 'creation_date' ) ;
#211 = ORIENTED_EDGE ( 'NONE', *, *, #8, .T. ) ;
#212 = APPLICATION_CONTEXT ( 'configuration controlled 3d designs of mechanical parts and assemblies' ) ;
#213 = COORDINATED_UNIVERSAL_TIME_OFFSET ( 1, 0, .AHEAD. ) ;
#214 = ORIENTED_EDGE ( 'NONE', *, *, #151, .T. ) ;
#215 = ORIENTED_EDGE ( 'NONE', *, *, #11, .T. ) ;
#216 = EDGE_LOOP ( 'NONE', ( #6 ) ) ;
#217 = CARTESIAN_POINT ( 'NONE',  ( 2.513866563967056016E-13, -8.817456953860941711E-15, 72.00000000000000000 ) ) ;
#218 = PLANE ( 'NONE',  #93 ) ;
#219 = VERTEX_POINT ( 'NONE', #63 ) ;
#220 = CARTESIAN_POINT ( 'NONE',  ( 7.681258945454893382E-14, 3.749399456654640188E-32, 22.00000000000000000 ) ) ;
#221 = CC_DESIGN_PERSON_AND_ORGANIZATION_ASSIGNMENT ( #194, #82, ( #181 ) ) ;
#222 = DIRECTION ( 'NONE',  ( 3.491481338843133355E-15, -1.217917285207545432E-16, 1.000000000000000000 ) ) ;
#223 = AXIS2_PLACEMENT_3D ( 'NONE', #20, #120, #70 ) ;
ENDSEC;
END-ISO-10303-21;
