ISO-10303-21;
HEADER;
FILE_DESCRIPTION (( 'STEP AP203' ),
    '1' );
FILE_NAME ('955093.step',
    '2021-11-17T08:03:35',
    ( '' ),
    ( '' ),
    'SwSTEP 2.0',
    'SolidWorks 2019',
    '' );
FILE_SCHEMA (( 'CONFIG_CONTROL_DESIGN' ));
ENDSEC;

DATA;
#1 = COORDINATED_UNIVERSAL_TIME_OFFSET ( 1, 0, .AHEAD. ) ;
#2 = CC_DESIGN_DATE_AND_TIME_ASSIGNMENT ( #160, #140, ( #80 ) ) ;
#3 = APPLICATION_PROTOCOL_DEFINITION ( 'international standard', 'config_control_design', 1994, #214 ) ;
#4 = EDGE_LOOP ( 'NONE', ( #133 ) ) ;
#5 = EDGE_LOOP ( 'NONE', ( #130 ) ) ;
#6 = PLANE ( 'NONE',  #93 ) ;
#7 = PLANE ( 'NONE',  #152 ) ;
#8 = CARTESIAN_POINT ( 'NONE',  ( 2.496409157272840412E-13, 4.999999999999990230, 71.50000000000000000 ) ) ;
#9 = DIRECTION ( 'NONE',  ( 3.491481338843133355E-15, -1.224646799147353207E-16, 1.000000000000000000 ) ) ;
#10 = VERTEX_POINT ( 'NONE', #79 ) ;
#11 = FACE_OUTER_BOUND ( 'NONE', #146, .T. ) ;
#12 = CARTESIAN_POINT ( 'NONE',  ( 7.681258945454893382E-14, 3.749399456654640188E-32, 22.00000000000000000 ) ) ;
#13 = CALENDAR_DATE ( 2021, 17, 11 ) ;
#14 = PERSON_AND_ORGANIZATION ( #25, #35 ) ;
#15 = MECHANICAL_CONTEXT ( 'NONE', #214, 'mechanical' ) ;
#16 = MANIFOLD_SOLID_BREP ( 'Corps-Déplacer/Copier1[2]', #131 ) ;
#17 = APPROVAL_STATUS ( 'not_yet_approved' ) ;
#18 = CC_DESIGN_APPROVAL ( #216, ( #56 ) ) ;
#19 = ADVANCED_FACE ( 'NONE', ( #219, #118 ), #137, .T. ) ;
#20 = DIRECTION ( 'NONE',  ( -3.491481338843133355E-15, 1.224646799147353207E-16, -1.000000000000000000 ) ) ;
#21 = ORIENTED_EDGE ( 'NONE', *, *, #144, .T. ) ;
#22 = CLOSED_SHELL ( 'NONE', ( #150, #43, #19, #126 ) ) ;
#23 = CARTESIAN_POINT ( 'NONE',  ( 7.681258945454893382E-14, -2.694222958124176809E-15, 22.00000000000000000 ) ) ;
#24 = CARTESIAN_POINT ( 'NONE',  ( 2.513866563967056016E-13, 4.499999999999992006, 72.00000000000000000 ) ) ;
#25 = PERSON ( 'UNSPECIFIED', 'UNSPECIFIED', 'UNSPECIFIED', ('UNSPECIFIED'), ('UNSPECIFIED'), ('UNSPECIFIED') ) ;
#26 = DIRECTION ( 'NONE',  ( -4.275831445896958607E-31, -1.000000000000000000, -1.224646799147353207E-16 ) ) ;
#27 = EDGE_CURVE ( 'NONE', #10, #10, #157, .T. ) ;
#28 = CYLINDRICAL_SURFACE ( 'NONE', #222, 5.000000000000000000 ) ;
#29 = CARTESIAN_POINT ( 'NONE',  ( 2.513866563967056016E-13, 3.374459510989167028E-32, 72.00000000000000000 ) ) ;
#30 = DIRECTION ( 'NONE',  ( -3.491481338843133355E-15, 1.224646799147353207E-16, -1.000000000000000000 ) ) ;
#31 = COORDINATED_UNIVERSAL_TIME_OFFSET ( 1, 0, .AHEAD. ) ;
#32 = DIRECTION ( 'NONE',  ( 1.000000000000000000, 0.0000000000000000000, 0.0000000000000000000 ) ) ;
#33 = DATE_AND_TIME ( #13, #119 ) ;
#34 = PRODUCT_RELATED_PRODUCT_CATEGORY ( 'detail', '', ( #67 ) ) ;
#35 = ORGANIZATION ( 'UNSPECIFIED', 'UNSPECIFIED', '' ) ;
#36 = DATE_TIME_ROLE ( 'classification_date' ) ;
#37 = DIRECTION ( 'NONE',  ( 3.491481338843133355E-15, -1.217917285207545432E-16, 1.000000000000000000 ) ) ;
#38 = CARTESIAN_POINT ( 'NONE',  ( -1.068957861474239564E-30, 3.749399456654644020E-32, -3.061616997868383141E-16 ) ) ;
#39 = CC_DESIGN_PERSON_AND_ORGANIZATION_ASSIGNMENT ( #89, #208, ( #80 ) ) ;
#40 = DIRECTION ( 'NONE',  ( 0.0000000000000000000, 1.000000000000000000, 0.0000000000000000000 ) ) ;
#41 = CIRCLE ( 'NONE', #49, 4.799999999999998934 ) ;
#42 = FACE_OUTER_BOUND ( 'NONE', #134, .T. ) ;
#43 = ADVANCED_FACE ( 'NONE', ( #217, #177 ), #164, .T. ) ;
#44 = DIRECTION ( 'NONE',  ( -4.275831445896958607E-31, -1.000000000000000000, -1.224646799147353207E-16 ) ) ;
#45 = PLANE ( 'NONE',  #180 ) ;
#46 = PERSON_AND_ORGANIZATION_ROLE ( 'classification_officer' ) ;
#47 = PERSON_AND_ORGANIZATION ( #25, #35 ) ;
#48 =( NAMED_UNIT ( * ) SI_UNIT ( $, .STERADIAN. ) SOLID_ANGLE_UNIT ( ) );
#49 = AXIS2_PLACEMENT_3D ( 'NONE', #73, #37, #91 ) ;
#50 = COORDINATED_UNIVERSAL_TIME_OFFSET ( 1, 0, .AHEAD. ) ;
#51 = ORIENTED_EDGE ( 'NONE', *, *, #184, .F. ) ;
#52 = AXIS2_PLACEMENT_3D ( 'NONE', #84, #149, #221 ) ;
#53 = ORIENTED_EDGE ( 'NONE', *, *, #71, .F. ) ;
#54 = DIRECTION ( 'NONE',  ( -3.491481338843133355E-15, 1.224646799147353207E-16, -1.000000000000000000 ) ) ;
#55 = CARTESIAN_POINT ( 'NONE',  ( 2.496409157272840412E-13, -8.756224613903574137E-15, 71.50000000000000000 ) ) ;
#56 = SECURITY_CLASSIFICATION ( '', '', #110 ) ;
#57 = DIRECTION ( 'NONE',  ( 3.491481338843133355E-15, -1.217917285207545432E-16, 1.000000000000000000 ) ) ;
#58 = EDGE_CURVE ( 'NONE', #120, #120, #41, .T. ) ;
#59 = UNCERTAINTY_MEASURE_WITH_UNIT (LENGTH_MEASURE( 1.000000000000000082E-05 ), #185, 'distance_accuracy_value', 'NONE');
#60 = CARTESIAN_POINT ( 'NONE',  ( -4.082242054614368845E-30, -4.799999999999998934, -1.169200593799243300E-15 ) ) ;
#61 = AXIS2_PLACEMENT_3D ( 'NONE', #75, #20, #197 ) ;
#62 = CC_DESIGN_PERSON_AND_ORGANIZATION_ASSIGNMENT ( #47, #129, ( #83 ) ) ;
#63 = APPROVAL_PERSON_ORGANIZATION ( #107, #188, #128 ) ;
#64 = CARTESIAN_POINT ( 'NONE',  ( 6.982962677686260794E-16, -2.435834570415088769E-17, 0.1999999999999998168 ) ) ;
#65 = FACE_OUTER_BOUND ( 'NONE', #162, .T. ) ;
#66 = DATE_AND_TIME ( #195, #90 ) ;
#67 = PRODUCT ( '955093', '955093', '', ( #15 ) ) ;
#68 = CALENDAR_DATE ( 2021, 17, 11 ) ;
#69 = PERSON_AND_ORGANIZATION_ROLE ( 'design_owner' ) ;
#70 = CIRCLE ( 'NONE', #52, 4.999999999999999112 ) ;
#71 = EDGE_CURVE ( 'NONE', #183, #183, #166, .T. ) ;
#72 = ORIENTED_EDGE ( 'NONE', *, *, #58, .F. ) ;
#73 = CARTESIAN_POINT ( 'NONE',  ( -2.041121027307184423E-30, 7.119948065315121647E-32, -5.846002968996216498E-16 ) ) ;
#74 = EDGE_LOOP ( 'NONE', ( #143 ) ) ;
#75 = CARTESIAN_POINT ( 'NONE',  ( 0.0000000000000000000, 0.0000000000000000000, 0.0000000000000000000 ) ) ;
#76 = APPROVAL ( #17, 'UNSPECIFIED' ) ;
#77 = VERTEX_POINT ( 'NONE', #148 ) ;
#78 = CARTESIAN_POINT ( 'NONE',  ( 7.681258945454893382E-14, -2.694222958124176809E-15, 22.00000000000000000 ) ) ;
#79 = CARTESIAN_POINT ( 'NONE',  ( 7.681258945454893382E-14, 4.999999999999997335, 22.00000000000000000 ) ) ;
#80 = PRODUCT_DEFINITION ( 'UNKNOWN', '', #83, #153 ) ;
#81 = DIRECTION ( 'NONE',  ( 3.491481338843133355E-15, -1.224646799147353207E-16, 1.000000000000000000 ) ) ;
#82 = CIRCLE ( 'NONE', #210, 5.000000000000000000 ) ;
#83 = PRODUCT_DEFINITION_FORMATION_WITH_SPECIFIED_SOURCE ( 'ANY', '', #67, .NOT_KNOWN. ) ;
#84 = CARTESIAN_POINT ( 'NONE',  ( 2.496409157272840412E-13, -8.756224613903574137E-15, 71.50000000000000000 ) ) ;
#85 = PERSON_AND_ORGANIZATION ( #25, #35 ) ;
#86 = CALENDAR_DATE ( 2021, 17, 11 ) ;
#87 = CC_DESIGN_DATE_AND_TIME_ASSIGNMENT ( #66, #36, ( #56 ) ) ;
#88 = PERSON_AND_ORGANIZATION ( #25, #35 ) ;
#89 = PERSON_AND_ORGANIZATION ( #25, #35 ) ;
#90 = LOCAL_TIME ( 9, 3, 35.00000000000000000, #1 ) ;
#91 = DIRECTION ( 'NONE',  ( -4.252335473556634944E-31, -1.000000000000000000, -1.217917285207545432E-16 ) ) ;
#92 = MANIFOLD_SOLID_BREP ( 'Corps-Déplacer/Copier1[1]', #22 ) ;
#93 = AXIS2_PLACEMENT_3D ( 'NONE', #38, #115, #145 ) ;
#94 = EDGE_LOOP ( 'NONE', ( #215 ) ) ;
#95 = LOCAL_TIME ( 9, 3, 35.00000000000000000, #50 ) ;
#96 = CARTESIAN_POINT ( 'NONE',  ( 2.513866563967056016E-13, -8.817456953860941711E-15, 72.00000000000000000 ) ) ;
#97 = ADVANCED_FACE ( 'NONE', ( #198 ), #6, .T. ) ;
#98 = CARTESIAN_POINT ( 'NONE',  ( 0.0000000000000000000, 0.0000000000000000000, 0.0000000000000000000 ) ) ;
#99 = EDGE_LOOP ( 'NONE', ( #209 ) ) ;
#100 = DIRECTION ( 'NONE',  ( -4.237045877651918877E-31, -1.000000000000000000, -1.192622389734054877E-16 ) ) ;
#101 = CC_DESIGN_PERSON_AND_ORGANIZATION_ASSIGNMENT ( #141, #69, ( #67 ) ) ;
#102 = DIRECTION ( 'NONE',  ( 0.0000000000000000000, 1.000000000000000000, 0.0000000000000000000 ) ) ;
#103 = PLANE ( 'NONE',  #116 ) ;
#104 =( GEOMETRIC_REPRESENTATION_CONTEXT ( 3 ) GLOBAL_UNCERTAINTY_ASSIGNED_CONTEXT ( ( #59 ) ) GLOBAL_UNIT_ASSIGNED_CONTEXT ( ( #185, #207, #48 ) ) REPRESENTATION_CONTEXT ( 'NONE', 'WORKASPACE' ) );
#105 = DIRECTION ( 'NONE',  ( 0.0000000000000000000, 0.0000000000000000000, 1.000000000000000000 ) ) ;
#106 = CC_DESIGN_PERSON_AND_ORGANIZATION_ASSIGNMENT ( #85, #204, ( #83 ) ) ;
#107 = PERSON_AND_ORGANIZATION ( #25, #35 ) ;
#108 = DATE_AND_TIME ( #68, #169 ) ;
#109 = AXIS2_PLACEMENT_3D ( 'NONE', #23, #163, #178 ) ;
#110 = SECURITY_CLASSIFICATION_LEVEL ( 'unclassified' ) ;
#111 = CC_DESIGN_SECURITY_CLASSIFICATION ( #56, ( #83 ) ) ;
#112 = APPROVAL_ROLE ( '' ) ;
#113 = ORIENTED_EDGE ( 'NONE', *, *, #58, .T. ) ;
#114 = ADVANCED_FACE ( 'NONE', ( #179 ), #7, .T. ) ;
#115 = DIRECTION ( 'NONE',  ( -3.491481338843133355E-15, 1.224646799147353207E-16, -1.000000000000000000 ) ) ;
#116 = AXIS2_PLACEMENT_3D ( 'NONE', #12, #81, #26 ) ;
#117 = CONICAL_SURFACE ( 'NONE', #211, 5.000000000000000000, 0.7853981633974507215 ) ;
#118 = FACE_OUTER_BOUND ( 'NONE', #213, .T. ) ;
#119 = LOCAL_TIME ( 9, 3, 35.00000000000000000, #206 ) ;
#120 = VERTEX_POINT ( 'NONE', #60 ) ;
#121 = CARTESIAN_POINT ( 'NONE',  ( 7.681258945454893382E-14, 3.749399456654640188E-32, 22.00000000000000000 ) ) ;
#122 = FACE_OUTER_BOUND ( 'NONE', #218, .T. ) ;
#123 = EDGE_LOOP ( 'NONE', ( #72 ) ) ;
#124 = DIRECTION ( 'NONE',  ( -3.491481338843133355E-15, 1.224646799147353207E-16, -1.000000000000000000 ) ) ;
#125 = APPROVAL_ROLE ( '' ) ;
#126 = ADVANCED_FACE ( 'NONE', ( #65 ), #45, .F. ) ;
#127 = PERSON_AND_ORGANIZATION ( #25, #35 ) ;
#128 = APPROVAL_ROLE ( '' ) ;
#129 = PERSON_AND_ORGANIZATION_ROLE ( 'creator' ) ;
#130 = ORIENTED_EDGE ( 'NONE', *, *, #144, .F. ) ;
#131 = CLOSED_SHELL ( 'NONE', ( #165, #114, #199, #97 ) ) ;
#132 = DIRECTION ( 'NONE',  ( 0.0000000000000000000, 1.000000000000000000, 0.0000000000000000000 ) ) ;
#133 = ORIENTED_EDGE ( 'NONE', *, *, #184, .T. ) ;
#134 = EDGE_LOOP ( 'NONE', ( #171 ) ) ;
#135 = LOCAL_TIME ( 9, 3, 35.00000000000000000, #31 ) ;
#136 = CARTESIAN_POINT ( 'NONE',  ( 7.681258945454893382E-14, 4.999999999999997335, 22.00000000000000000 ) ) ;
#137 = CONICAL_SURFACE ( 'NONE', #142, 4.999999999999999112, 0.7853981633974466137 ) ;
#138 = DIRECTION ( 'NONE',  ( 3.491481338843133355E-15, -1.217917285207545432E-16, 1.000000000000000000 ) ) ;
#139 = DIRECTION ( 'NONE',  ( 4.275831445896958607E-31, 1.000000000000000000, 1.224646799147353207E-16 ) ) ;
#140 = DATE_TIME_ROLE ( 'creation_date' ) ;
#141 = PERSON_AND_ORGANIZATION ( #25, #35 ) ;
#142 = AXIS2_PLACEMENT_3D ( 'NONE', #55, #200, #40 ) ;
#143 = ORIENTED_EDGE ( 'NONE', *, *, #27, .T. ) ;
#144 = EDGE_CURVE ( 'NONE', #168, #168, #82, .T. ) ;
#145 = DIRECTION ( 'NONE',  ( 4.275831445896958607E-31, 1.000000000000000000, 1.224646799147353207E-16 ) ) ;
#146 = EDGE_LOOP ( 'NONE', ( #21 ) ) ;
#147 = CIRCLE ( 'NONE', #186, 5.000000000000000000 ) ;
#148 = CARTESIAN_POINT ( 'NONE',  ( 6.982962677686240087E-16, -5.000000000000000000, 0.1999999999999992339 ) ) ;
#149 = DIRECTION ( 'NONE',  ( -3.491481338843133355E-15, 1.224646799147353207E-16, -1.000000000000000000 ) ) ;
#150 = ADVANCED_FACE ( 'NONE', ( #11 ), #103, .F. ) ;
#151 = VERTEX_POINT ( 'NONE', #8 ) ;
#152 = AXIS2_PLACEMENT_3D ( 'NONE', #121, #9, #44 ) ;
#153 = DESIGN_CONTEXT ( 'detailed design', #155, 'design' ) ;
#154 = DIRECTION ( 'NONE',  ( -4.237045877651918877E-31, -1.000000000000000000, -1.192622389734054877E-16 ) ) ;
#155 = APPLICATION_CONTEXT ( 'configuration controlled 3d designs of mechanical parts and assemblies' ) ;
#156 = DATE_AND_TIME ( #189, #135 ) ;
#157 = CIRCLE ( 'NONE', #109, 5.000000000000000000 ) ;
#158 = CARTESIAN_POINT ( 'NONE',  ( 0.0000000000000000000, 0.0000000000000000000, 0.0000000000000000000 ) ) ;
#159 = APPROVAL_STATUS ( 'not_yet_approved' ) ;
#160 = DATE_AND_TIME ( #86, #95 ) ;
#161 = CC_DESIGN_APPROVAL ( #188, ( #83 ) ) ;
#162 = EDGE_LOOP ( 'NONE', ( #53 ) ) ;
#163 = DIRECTION ( 'NONE',  ( -3.491481338843133355E-15, 1.224646799147353207E-16, -1.000000000000000000 ) ) ;
#164 = CYLINDRICAL_SURFACE ( 'NONE', #61, 4.999999999999999112 ) ;
#165 = ADVANCED_FACE ( 'NONE', ( #187, #122 ), #28, .T. ) ;
#166 = CIRCLE ( 'NONE', #194, 4.500000000000000888 ) ;
#167 = APPROVAL_PERSON_ORGANIZATION ( #88, #76, #125 ) ;
#168 = VERTEX_POINT ( 'NONE', #136 ) ;
#169 = LOCAL_TIME ( 9, 3, 35.00000000000000000, #176 ) ;
#170 = CARTESIAN_POINT ( 'NONE',  ( 6.982962677686260794E-16, -2.435834570415088769E-17, 0.1999999999999998168 ) ) ;
#171 = ORIENTED_EDGE ( 'NONE', *, *, #196, .F. ) ;
#172 = DIRECTION ( 'NONE',  ( 4.275831445896958607E-31, 1.000000000000000000, 1.224646799147353207E-16 ) ) ;
#173 = APPROVAL_STATUS ( 'not_yet_approved' ) ;
#174 = APPROVAL_DATE_TIME ( #108, #216 ) ;
#175 = SHAPE_DEFINITION_REPRESENTATION ( #212, #182 ) ;
#176 = COORDINATED_UNIVERSAL_TIME_OFFSET ( 1, 0, .AHEAD. ) ;
#177 = FACE_OUTER_BOUND ( 'NONE', #5, .T. ) ;
#178 = DIRECTION ( 'NONE',  ( 0.0000000000000000000, 1.000000000000000000, 0.0000000000000000000 ) ) ;
#179 = FACE_OUTER_BOUND ( 'NONE', #94, .T. ) ;
#180 = AXIS2_PLACEMENT_3D ( 'NONE', #29, #124, #172 ) ;
#181 = CC_DESIGN_APPROVAL ( #76, ( #80 ) ) ;
#182 = ADVANCED_BREP_SHAPE_REPRESENTATION ( '955093', ( #92, #16, #203 ), #104 ) ;
#183 = VERTEX_POINT ( 'NONE', #24 ) ;
#184 = EDGE_CURVE ( 'NONE', #151, #151, #70, .T. ) ;
#185 =( LENGTH_UNIT ( ) NAMED_UNIT ( * ) SI_UNIT ( .MILLI., .METRE. ) );
#186 = AXIS2_PLACEMENT_3D ( 'NONE', #64, #138, #154 ) ;
#187 = FACE_OUTER_BOUND ( 'NONE', #74, .T. ) ;
#188 = APPROVAL ( #173, 'UNSPECIFIED' ) ;
#189 = CALENDAR_DATE ( 2021, 17, 11 ) ;
#190 = APPLICATION_PROTOCOL_DEFINITION ( 'international standard', 'config_control_design', 1994, #155 ) ;
#191 = APPROVAL_DATE_TIME ( #156, #76 ) ;
#192 = EDGE_LOOP ( 'NONE', ( #113 ) ) ;
#193 = APPROVAL_DATE_TIME ( #33, #188 ) ;
#194 = AXIS2_PLACEMENT_3D ( 'NONE', #96, #54, #132 ) ;
#195 = CALENDAR_DATE ( 2021, 17, 11 ) ;
#196 = EDGE_CURVE ( 'NONE', #77, #77, #147, .T. ) ;
#197 = DIRECTION ( 'NONE',  ( 4.275831445896958607E-31, 1.000000000000000000, 1.224646799147353207E-16 ) ) ;
#198 = FACE_OUTER_BOUND ( 'NONE', #123, .T. ) ;
#199 = ADVANCED_FACE ( 'NONE', ( #223, #42 ), #117, .T. ) ;
#200 = DIRECTION ( 'NONE',  ( -3.491481338843133355E-15, 1.224646799147353207E-16, -1.000000000000000000 ) ) ;
#201 = ORIENTED_EDGE ( 'NONE', *, *, #196, .T. ) ;
#202 = DIRECTION ( 'NONE',  ( -3.491481338843133355E-15, 1.224646799147353207E-16, -1.000000000000000000 ) ) ;
#203 = AXIS2_PLACEMENT_3D ( 'NONE', #158, #105, #32 ) ;
#204 = PERSON_AND_ORGANIZATION_ROLE ( 'design_supplier' ) ;
#205 = CC_DESIGN_PERSON_AND_ORGANIZATION_ASSIGNMENT ( #14, #46, ( #56 ) ) ;
#206 = COORDINATED_UNIVERSAL_TIME_OFFSET ( 1, 0, .AHEAD. ) ;
#207 =( NAMED_UNIT ( * ) PLANE_ANGLE_UNIT ( ) SI_UNIT ( $, .RADIAN. ) );
#208 = PERSON_AND_ORGANIZATION_ROLE ( 'creator' ) ;
#209 = ORIENTED_EDGE ( 'NONE', *, *, #71, .T. ) ;
#210 = AXIS2_PLACEMENT_3D ( 'NONE', #78, #30, #102 ) ;
#211 = AXIS2_PLACEMENT_3D ( 'NONE', #170, #57, #100 ) ;
#212 = PRODUCT_DEFINITION_SHAPE ( 'NONE', 'NONE',  #80 ) ;
#213 = EDGE_LOOP ( 'NONE', ( #51 ) ) ;
#214 = APPLICATION_CONTEXT ( 'configuration controlled 3d designs of mechanical parts and assemblies' ) ;
#215 = ORIENTED_EDGE ( 'NONE', *, *, #27, .F. ) ;
#216 = APPROVAL ( #159, 'UNSPECIFIED' ) ;
#217 = FACE_OUTER_BOUND ( 'NONE', #4, .T. ) ;
#218 = EDGE_LOOP ( 'NONE', ( #201 ) ) ;
#219 = FACE_BOUND ( 'NONE', #99, .T. ) ;
#220 = APPROVAL_PERSON_ORGANIZATION ( #127, #216, #112 ) ;
#221 = DIRECTION ( 'NONE',  ( 0.0000000000000000000, 1.000000000000000000, 0.0000000000000000000 ) ) ;
#222 = AXIS2_PLACEMENT_3D ( 'NONE', #98, #202, #139 ) ;
#223 = FACE_BOUND ( 'NONE', #192, .T. ) ;
ENDSEC;
END-ISO-10303-21;
