ISO-10303-21;
HEADER;
FILE_DESCRIPTION (( 'STEP AP203' ),
    '1' );
FILE_NAME ('955092.step',
    '2021-11-17T08:03:35',
    ( '' ),
    ( '' ),
    'SwSTEP 2.0',
    'SolidWorks 2019',
    '' );
FILE_SCHEMA (( 'CONFIG_CONTROL_DESIGN' ));
ENDSEC;

DATA;
#1 = DIRECTION ( 'NONE',  ( 1.000000000000000000, 0.0000000000000000000, 0.0000000000000000000 ) ) ;
#2 = COORDINATED_UNIVERSAL_TIME_OFFSET ( 1, 0, .AHEAD. ) ;
#3 = TOROIDAL_SURFACE ( 'NONE', #112, 9.999999999999998224, 8.000000000000000000 ) ;
#4 = DATE_AND_TIME ( #68, #185 ) ;
#5 = PERSON_AND_ORGANIZATION ( #168, #226 ) ;
#6 = CIRCLE ( 'NONE', #163, 1.799999999999999600 ) ;
#7 = EDGE_LOOP ( 'NONE', ( #213 ) ) ;
#8 = ADVANCED_FACE ( 'NONE', ( #91 ), #218, .F. ) ;
#9 = EDGE_LOOP ( 'NONE', ( #14 ) ) ;
#10 = CALENDAR_DATE ( 2021, 17, 11 ) ;
#11 = DIRECTION ( 'NONE',  ( 0.0000000000000000000, 1.000000000000000000, 0.0000000000000000000 ) ) ;
#12 = PRODUCT_RELATED_PRODUCT_CATEGORY ( 'detail', '', ( #51 ) ) ;
#13 = ORIENTED_EDGE ( 'NONE', *, *, #164, .F. ) ;
#14 = ORIENTED_EDGE ( 'NONE', *, *, #206, .T. ) ;
#15 = DIRECTION ( 'NONE',  ( -3.491481338843133355E-15, 1.224646799147353207E-16, -1.000000000000000000 ) ) ;
#16 = UNCERTAINTY_MEASURE_WITH_UNIT (LENGTH_MEASURE( 1.000000000000000082E-05 ), #60, 'distance_accuracy_value', 'NONE');
#17 = CLOSED_SHELL ( 'NONE', ( #69, #95, #8, #125, #241 ) ) ;
#18 = DIRECTION ( 'NONE',  ( -1.000000000000000000, 0.0000000000000000000, 3.469446951953614189E-15 ) ) ;
#19 = FACE_OUTER_BOUND ( 'NONE', #128, .T. ) ;
#20 = CARTESIAN_POINT ( 'NONE',  ( 1.972686956446370535E-13, 2.999999999999992895, 56.50000000000000711 ) ) ;
#21 = CC_DESIGN_PERSON_AND_ORGANIZATION_ASSIGNMENT ( #150, #66, ( #51 ) ) ;
#22 = FACE_OUTER_BOUND ( 'NONE', #9, .T. ) ;
#23 = APPROVAL_ROLE ( '' ) ;
#24 = SHAPE_DEFINITION_REPRESENTATION ( #186, #100 ) ;
#25 = PERSON_AND_ORGANIZATION_ROLE ( 'creator' ) ;
#26 = CC_DESIGN_APPROVAL ( #37, ( #204 ) ) ;
#27 = ORIENTED_EDGE ( 'NONE', *, *, #187, .T. ) ;
#28 = COORDINATED_UNIVERSAL_TIME_OFFSET ( 1, 0, .AHEAD. ) ;
#29 = AXIS2_PLACEMENT_3D ( 'NONE', #108, #70, #56 ) ;
#30 = EDGE_LOOP ( 'NONE', ( #227 ) ) ;
#31 = ORIENTED_EDGE ( 'NONE', *, *, #164, .T. ) ;
#32 = EDGE_CURVE ( 'NONE', #177, #177, #190, .T. ) ;
#33 = DIRECTION ( 'NONE',  ( -3.491481338843133355E-15, 1.224646799147353207E-16, -1.000000000000000000 ) ) ;
#34 =( GEOMETRIC_REPRESENTATION_CONTEXT ( 3 ) GLOBAL_UNCERTAINTY_ASSIGNED_CONTEXT ( ( #16 ) ) GLOBAL_UNIT_ASSIGNED_CONTEXT ( ( #60, #83, #180 ) ) REPRESENTATION_CONTEXT ( 'NONE', 'WORKASPACE' ) );
#35 = DIRECTION ( 'NONE',  ( -4.333342374871280669E-31, -1.000000000000000000, -1.219727444046192488E-16 ) ) ;
#36 = DIRECTION ( 'NONE',  ( -4.275831445896958607E-31, -1.000000000000000000, -1.224646799147353207E-16 ) ) ;
#37 = APPROVAL ( #75, 'UNSPECIFIED' ) ;
#38 = VERTEX_POINT ( 'NONE', #237 ) ;
#39 = CONICAL_SURFACE ( 'NONE', #129, 2.999999999999999556, 0.7853981633974548293 ) ;
#40 = CARTESIAN_POINT ( 'NONE',  ( 1.990144363140586139E-13, -6.980486755139912911E-15, 57.00000000000000000 ) ) ;
#41 = DIRECTION ( 'NONE',  ( -3.491481338843133355E-15, 1.224646799147353207E-16, -1.000000000000000000 ) ) ;
#42 = CARTESIAN_POINT ( 'NONE',  ( 0.0000000000000000000, 0.0000000000000000000, 0.0000000000000000000 ) ) ;
#43 = PERSON_AND_ORGANIZATION ( #168, #226 ) ;
#44 = PERSON_AND_ORGANIZATION ( #168, #226 ) ;
#45 = EDGE_CURVE ( 'NONE', #145, #145, #6, .T. ) ;
#46 = PERSON_AND_ORGANIZATION ( #168, #226 ) ;
#47 = ORIENTED_EDGE ( 'NONE', *, *, #45, .F. ) ;
#48 = PERSON_AND_ORGANIZATION_ROLE ( 'classification_officer' ) ;
#49 = FACE_OUTER_BOUND ( 'NONE', #71, .T. ) ;
#50 = AXIS2_PLACEMENT_3D ( 'NONE', #61, #240, #85 ) ;
#51 = PRODUCT ( '955092', '955092', '', ( #243 ) ) ;
#52 = FACE_OUTER_BOUND ( 'NONE', #172, .T. ) ;
#53 = APPROVAL_ROLE ( '' ) ;
#54 = EDGE_LOOP ( 'NONE', ( #110 ) ) ;
#55 = AXIS2_PLACEMENT_3D ( 'NONE', #160, #33, #231 ) ;
#56 = DIRECTION ( 'NONE',  ( 4.275831445896958607E-31, 1.000000000000000000, 1.224646799147353207E-16 ) ) ;
#57 = APPROVAL_PERSON_ORGANIZATION ( #43, #86, #23 ) ;
#58 = CC_DESIGN_PERSON_AND_ORGANIZATION_ASSIGNMENT ( #5, #189, ( #193 ) ) ;
#59 = VERTEX_POINT ( 'NONE', #165 ) ;
#60 =( LENGTH_UNIT ( ) NAMED_UNIT ( * ) SI_UNIT ( .MILLI., .METRE. ) );
#61 = CARTESIAN_POINT ( 'NONE',  ( 3.491481338843132724E-14, 0.0000000000000000000, 9.999999999999998224 ) ) ;
#62 = CC_DESIGN_DATE_AND_TIME_ASSIGNMENT ( #153, #72, ( #204 ) ) ;
#63 = CIRCLE ( 'NONE', #84, 2.499999999999999556 ) ;
#64 = CARTESIAN_POINT ( 'NONE',  ( -6.413747168845438786E-31, 2.249639673992786412E-32, -1.836970198721029934E-16 ) ) ;
#65 = CARTESIAN_POINT ( 'NONE',  ( -6.413747168845438786E-31, 0.0000000000000000000, -1.836970198721029934E-16 ) ) ;
#66 = PERSON_AND_ORGANIZATION_ROLE ( 'design_owner' ) ;
#67 = MANIFOLD_SOLID_BREP ( 'Corps-Déplacer/Copier1[2]', #79 ) ;
#68 = CALENDAR_DATE ( 2021, 17, 11 ) ;
#69 = ADVANCED_FACE ( 'NONE', ( #49, #191 ), #137, .T. ) ;
#70 = DIRECTION ( 'NONE',  ( -3.491481338843133355E-15, 1.224646799147353207E-16, -1.000000000000000000 ) ) ;
#71 = EDGE_LOOP ( 'NONE', ( #93 ) ) ;
#72 = DATE_TIME_ROLE ( 'classification_date' ) ;
#73 = DIRECTION ( 'NONE',  ( -4.333342374871280669E-31, -1.000000000000000000, -1.219727444046192488E-16 ) ) ;
#74 = AXIS2_PLACEMENT_3D ( 'NONE', #113, #184, #183 ) ;
#75 = APPROVAL_STATUS ( 'not_yet_approved' ) ;
#76 = CARTESIAN_POINT ( 'NONE',  ( -7.654203852401942023E-31, 2.669980524493171302E-32, -2.192251113373581433E-16 ) ) ;
#77 = EDGE_LOOP ( 'NONE', ( #13 ) ) ;
#78 = CC_DESIGN_PERSON_AND_ORGANIZATION_ASSIGNMENT ( #121, #48, ( #204 ) ) ;
#79 = CLOSED_SHELL ( 'NONE', ( #147, #178, #208, #134 ) ) ;
#80 = CARTESIAN_POINT ( 'NONE',  ( 6.982962677686248961E-16, -2.000000000000000000, 0.1999999999999994837 ) ) ;
#81 = PLANE ( 'NONE',  #74 ) ;
#82 = EDGE_CURVE ( 'NONE', #38, #38, #120, .T. ) ;
#83 =( NAMED_UNIT ( * ) PLANE_ANGLE_UNIT ( ) SI_UNIT ( $, .RADIAN. ) );
#84 = AXIS2_PLACEMENT_3D ( 'NONE', #40, #15, #238 ) ;
#85 = DIRECTION ( 'NONE',  ( 1.000000000000000000, 0.0000000000000000000, -3.469446951953617344E-15 ) ) ;
#86 = APPROVAL ( #116, 'UNSPECIFIED' ) ;
#87 = SECURITY_CLASSIFICATION_LEVEL ( 'unclassified' ) ;
#88 = CIRCLE ( 'NONE', #50, 1.999999999999998224 ) ;
#89 = CARTESIAN_POINT ( 'NONE',  ( 1.972686956446370535E-13, -6.919254415182546126E-15, 56.50000000000000711 ) ) ;
#90 = DATE_AND_TIME ( #136, #236 ) ;
#91 = FACE_OUTER_BOUND ( 'NONE', #77, .T. ) ;
#92 = CARTESIAN_POINT ( 'NONE',  ( 6.982962677686257836E-16, -2.435834570415087537E-17, 0.1999999999999997335 ) ) ;
#93 = ORIENTED_EDGE ( 'NONE', *, *, #32, .T. ) ;
#94 = ORIENTED_EDGE ( 'NONE', *, *, #82, .T. ) ;
#95 = ADVANCED_FACE ( 'NONE', ( #229, #194 ), #39, .T. ) ;
#96 = CARTESIAN_POINT ( 'NONE',  ( -1.530840770480388405E-30, -1.799999999999999600, -4.384502226747162866E-16 ) ) ;
#97 = LOCAL_TIME ( 9, 3, 35.00000000000000000, #28 ) ;
#98 = VERTEX_POINT ( 'NONE', #144 ) ;
#99 = AXIS2_PLACEMENT_3D ( 'NONE', #92, #157, #73 ) ;
#100 = ADVANCED_BREP_SHAPE_REPRESENTATION ( '955092', ( #182, #67, #154 ), #34 ) ;
#101 = DIRECTION ( 'NONE',  ( 4.275831445896958607E-31, 1.000000000000000000, 1.224646799147353207E-16 ) ) ;
#102 = CONICAL_SURFACE ( 'NONE', #233, 2.000000000000000000, 0.7853981633974497223 ) ;
#103 = DIRECTION ( 'NONE',  ( 0.0000000000000000000, 0.0000000000000000000, 1.000000000000000000 ) ) ;
#104 = CC_DESIGN_PERSON_AND_ORGANIZATION_ASSIGNMENT ( #152, #25, ( #181 ) ) ;
#105 = ORIENTED_EDGE ( 'NONE', *, *, #206, .F. ) ;
#106 = DATE_AND_TIME ( #10, #97 ) ;
#107 = DIRECTION ( 'NONE',  ( 3.491481338843133355E-15, -0.0000000000000000000, 1.000000000000000000 ) ) ;
#108 = CARTESIAN_POINT ( 'NONE',  ( 1.990144363140586139E-13, 1.874699728327311336E-32, 57.00000000000000000 ) ) ;
#109 = CARTESIAN_POINT ( 'NONE',  ( 3.491481338843133355E-14, 0.0000000000000000000, 10.00000000000000000 ) ) ;
#110 = ORIENTED_EDGE ( 'NONE', *, *, #117, .F. ) ;
#111 = CARTESIAN_POINT ( 'NONE',  ( 3.491481338843133355E-14, 2.249639673992784496E-32, 10.00000000000000000 ) ) ;
#112 = AXIS2_PLACEMENT_3D ( 'NONE', #109, #174, #131 ) ;
#113 = CARTESIAN_POINT ( 'NONE',  ( 3.491481338843133355E-14, 2.249639673992784496E-32, 10.00000000000000000 ) ) ;
#114 = DIRECTION ( 'NONE',  ( 3.491481338843133355E-15, -0.0000000000000000000, 1.000000000000000000 ) ) ;
#115 = LOCAL_TIME ( 9, 3, 35.00000000000000000, #141 ) ;
#116 = APPROVAL_STATUS ( 'not_yet_approved' ) ;
#117 = EDGE_CURVE ( 'NONE', #162, #162, #175, .T. ) ;
#118 = PERSON_AND_ORGANIZATION ( #168, #226 ) ;
#119 = DIRECTION ( 'NONE',  ( -4.252335473556635820E-31, -1.000000000000000000, -1.217917285207545432E-16 ) ) ;
#120 = CIRCLE ( 'NONE', #151, 1.999999999999998224 ) ;
#121 = PERSON_AND_ORGANIZATION ( #168, #226 ) ;
#122 = APPLICATION_CONTEXT ( 'configuration controlled 3d designs of mechanical parts and assemblies' ) ;
#123 = CARTESIAN_POINT ( 'NONE',  ( 3.491481338843132724E-14, 0.0000000000000000000, 9.999999999999998224 ) ) ;
#124 = DIRECTION ( 'NONE',  ( -3.491481338843133355E-15, 1.224646799147353207E-16, -1.000000000000000000 ) ) ;
#125 = ADVANCED_FACE ( 'NONE', ( #214, #52 ), #3, .F. ) ;
#126 = APPROVAL_PERSON_ORGANIZATION ( #46, #37, #53 ) ;
#127 = FACE_OUTER_BOUND ( 'NONE', #216, .T. ) ;
#128 = EDGE_LOOP ( 'NONE', ( #105 ) ) ;
#129 = AXIS2_PLACEMENT_3D ( 'NONE', #139, #173, #11 ) ;
#130 = VERTEX_POINT ( 'NONE', #200 ) ;
#131 = DIRECTION ( 'NONE',  ( 1.000000000000000000, 0.0000000000000000000, -3.491481338843133355E-15 ) ) ;
#132 = APPROVAL_DATE_TIME ( #4, #86 ) ;
#133 = DATE_TIME_ROLE ( 'creation_date' ) ;
#134 = ADVANCED_FACE ( 'NONE', ( #127 ), #167, .T. ) ;
#135 = DIRECTION ( 'NONE',  ( 3.491481338843133355E-15, -1.217917285207545432E-16, 1.000000000000000000 ) ) ;
#136 = CALENDAR_DATE ( 2021, 17, 11 ) ;
#137 = CYLINDRICAL_SURFACE ( 'NONE', #55, 3.000000000000000000 ) ;
#138 = AXIS2_PLACEMENT_3D ( 'NONE', #64, #41, #101 ) ;
#139 = CARTESIAN_POINT ( 'NONE',  ( 1.972686956446370535E-13, -6.919254415182546126E-15, 56.50000000000000711 ) ) ;
#140 = CC_DESIGN_PERSON_AND_ORGANIZATION_ASSIGNMENT ( #118, #188, ( #193 ) ) ;
#141 = COORDINATED_UNIVERSAL_TIME_OFFSET ( 1, 0, .AHEAD. ) ;
#142 = EDGE_LOOP ( 'NONE', ( #27 ) ) ;
#143 = ORIENTED_EDGE ( 'NONE', *, *, #82, .F. ) ;
#144 = CARTESIAN_POINT ( 'NONE',  ( 1.990144363140586139E-13, 2.499999999999992895, 57.00000000000000000 ) ) ;
#145 = VERTEX_POINT ( 'NONE', #96 ) ;
#146 = CYLINDRICAL_SURFACE ( 'NONE', #159, 1.999999999999999112 ) ;
#147 = ADVANCED_FACE ( 'NONE', ( #19, #203 ), #146, .T. ) ;
#148 = AXIS2_PLACEMENT_3D ( 'NONE', #111, #179, #36 ) ;
#149 = DIRECTION ( 'NONE',  ( 1.000000000000000000, 0.0000000000000000000, -3.491481338843133355E-15 ) ) ;
#150 = PERSON_AND_ORGANIZATION ( #168, #226 ) ;
#151 = AXIS2_PLACEMENT_3D ( 'NONE', #123, #107, #156 ) ;
#152 = PERSON_AND_ORGANIZATION ( #168, #226 ) ;
#153 = DATE_AND_TIME ( #215, #217 ) ;
#154 = AXIS2_PLACEMENT_3D ( 'NONE', #42, #103, #1 ) ;
#155 = DIRECTION ( 'NONE',  ( 0.0000000000000000000, 1.000000000000000000, 0.0000000000000000000 ) ) ;
#156 = DIRECTION ( 'NONE',  ( 1.000000000000000000, 0.0000000000000000000, -3.469446951953617344E-15 ) ) ;
#157 = DIRECTION ( 'NONE',  ( 3.491481338843133355E-15, -1.217917285207545432E-16, 1.000000000000000000 ) ) ;
#158 = COORDINATED_UNIVERSAL_TIME_OFFSET ( 1, 0, .AHEAD. ) ;
#159 = AXIS2_PLACEMENT_3D ( 'NONE', #65, #114, #149 ) ;
#160 = CARTESIAN_POINT ( 'NONE',  ( 0.0000000000000000000, 0.0000000000000000000, 0.0000000000000000000 ) ) ;
#161 = ORIENTED_EDGE ( 'NONE', *, *, #187, .F. ) ;
#162 = VERTEX_POINT ( 'NONE', #80 ) ;
#163 = AXIS2_PLACEMENT_3D ( 'NONE', #76, #135, #119 ) ;
#164 = EDGE_CURVE ( 'NONE', #98, #98, #63, .T. ) ;
#165 = CARTESIAN_POINT ( 'NONE',  ( -2.999999999999951594, 0.0000000000000000000, 13.87298334620742857 ) ) ;
#166 = FACE_OUTER_BOUND ( 'NONE', #195, .T. ) ;
#167 = PLANE ( 'NONE',  #138 ) ;
#168 = PERSON ( 'UNSPECIFIED', 'UNSPECIFIED', 'UNSPECIFIED', ('UNSPECIFIED'), ('UNSPECIFIED'), ('UNSPECIFIED') ) ;
#169 = DIRECTION ( 'NONE',  ( 3.491481338843133355E-15, -0.0000000000000000000, 1.000000000000000000 ) ) ;
#170 = APPLICATION_PROTOCOL_DEFINITION ( 'international standard', 'config_control_design', 1994, #122 ) ;
#171 = APPROVAL_DATE_TIME ( #106, #37 ) ;
#172 = EDGE_LOOP ( 'NONE', ( #94 ) ) ;
#173 = DIRECTION ( 'NONE',  ( -3.491481338843133355E-15, 1.224646799147353207E-16, -1.000000000000000000 ) ) ;
#174 = DIRECTION ( 'NONE',  ( 3.491481338843133355E-15, -0.0000000000000000000, 1.000000000000000000 ) ) ;
#175 = CIRCLE ( 'NONE', #99, 2.000000000000000000 ) ;
#176 = EDGE_LOOP ( 'NONE', ( #161 ) ) ;
#177 = VERTEX_POINT ( 'NONE', #20 ) ;
#178 = ADVANCED_FACE ( 'NONE', ( #22 ), #81, .T. ) ;
#179 = DIRECTION ( 'NONE',  ( 3.491481338843133355E-15, -1.224646799147353207E-16, 1.000000000000000000 ) ) ;
#180 =( NAMED_UNIT ( * ) SI_UNIT ( $, .STERADIAN. ) SOLID_ANGLE_UNIT ( ) );
#181 = PRODUCT_DEFINITION ( 'UNKNOWN', '', #193, #228 ) ;
#182 = MANIFOLD_SOLID_BREP ( 'Corps-Déplacer/Copier1[1]', #17 ) ;
#183 = DIRECTION ( 'NONE',  ( -4.275831445896958607E-31, -1.000000000000000000, -1.224646799147353207E-16 ) ) ;
#184 = DIRECTION ( 'NONE',  ( 3.491481338843133355E-15, -1.224646799147353207E-16, 1.000000000000000000 ) ) ;
#185 = LOCAL_TIME ( 9, 3, 35.00000000000000000, #2 ) ;
#186 = PRODUCT_DEFINITION_SHAPE ( 'NONE', 'NONE',  #181 ) ;
#187 = EDGE_CURVE ( 'NONE', #59, #59, #198, .T. ) ;
#188 = PERSON_AND_ORGANIZATION_ROLE ( 'creator' ) ;
#189 = PERSON_AND_ORGANIZATION_ROLE ( 'design_supplier' ) ;
#190 = CIRCLE ( 'NONE', #205, 2.999999999999999556 ) ;
#191 = FACE_OUTER_BOUND ( 'NONE', #142, .T. ) ;
#192 = COORDINATED_UNIVERSAL_TIME_OFFSET ( 1, 0, .AHEAD. ) ;
#193 = PRODUCT_DEFINITION_FORMATION_WITH_SPECIFIED_SOURCE ( 'ANY', '', #51, .NOT_KNOWN. ) ;
#194 = FACE_OUTER_BOUND ( 'NONE', #30, .T. ) ;
#195 = EDGE_LOOP ( 'NONE', ( #143 ) ) ;
#196 = CC_DESIGN_SECURITY_CLASSIFICATION ( #204, ( #193 ) ) ;
#197 = CC_DESIGN_DATE_AND_TIME_ASSIGNMENT ( #212, #133, ( #181 ) ) ;
#198 = CIRCLE ( 'NONE', #202, 3.000000000000000000 ) ;
#199 = CARTESIAN_POINT ( 'NONE',  ( 6.982962677686257836E-16, -2.435834570415087537E-17, 0.1999999999999997335 ) ) ;
#200 = CARTESIAN_POINT ( 'NONE',  ( 2.000000000000033307, 0.0000000000000000000, 9.999999999999991118 ) ) ;
#201 = FACE_BOUND ( 'NONE', #7, .T. ) ;
#202 = AXIS2_PLACEMENT_3D ( 'NONE', #221, #169, #18 ) ;
#203 = FACE_OUTER_BOUND ( 'NONE', #234, .T. ) ;
#204 = SECURITY_CLASSIFICATION ( '', '', #87 ) ;
#205 = AXIS2_PLACEMENT_3D ( 'NONE', #89, #124, #155 ) ;
#206 = EDGE_CURVE ( 'NONE', #130, #130, #88, .T. ) ;
#207 = APPLICATION_PROTOCOL_DEFINITION ( 'international standard', 'config_control_design', 1994, #242 ) ;
#208 = ADVANCED_FACE ( 'NONE', ( #201, #222 ), #102, .T. ) ;
#209 = CALENDAR_DATE ( 2021, 17, 11 ) ;
#210 = APPROVAL_STATUS ( 'not_yet_approved' ) ;
#211 = EDGE_LOOP ( 'NONE', ( #31 ) ) ;
#212 = DATE_AND_TIME ( #209, #115 ) ;
#213 = ORIENTED_EDGE ( 'NONE', *, *, #45, .T. ) ;
#214 = FACE_OUTER_BOUND ( 'NONE', #176, .T. ) ;
#215 = CALENDAR_DATE ( 2021, 17, 11 ) ;
#216 = EDGE_LOOP ( 'NONE', ( #47 ) ) ;
#217 = LOCAL_TIME ( 9, 3, 35.00000000000000000, #192 ) ;
#218 = PLANE ( 'NONE',  #29 ) ;
#219 = CC_DESIGN_APPROVAL ( #86, ( #181 ) ) ;
#220 = DIRECTION ( 'NONE',  ( 3.491481338843133355E-15, -1.217917285207545432E-16, 1.000000000000000000 ) ) ;
#221 = CARTESIAN_POINT ( 'NONE',  ( 4.843726246736477116E-14, 0.0000000000000000000, 13.87298334620741969 ) ) ;
#222 = FACE_OUTER_BOUND ( 'NONE', #54, .T. ) ;
#223 = APPROVAL_PERSON_ORGANIZATION ( #44, #224, #230 ) ;
#224 = APPROVAL ( #210, 'UNSPECIFIED' ) ;
#225 = CC_DESIGN_APPROVAL ( #224, ( #193 ) ) ;
#226 = ORGANIZATION ( 'UNSPECIFIED', 'UNSPECIFIED', '' ) ;
#227 = ORIENTED_EDGE ( 'NONE', *, *, #32, .F. ) ;
#228 = DESIGN_CONTEXT ( 'detailed design', #242, 'design' ) ;
#229 = FACE_BOUND ( 'NONE', #211, .T. ) ;
#230 = APPROVAL_ROLE ( '' ) ;
#231 = DIRECTION ( 'NONE',  ( 4.275831445896959482E-31, 1.000000000000000000, 1.224646799147353207E-16 ) ) ;
#232 = APPROVAL_DATE_TIME ( #90, #224 ) ;
#233 = AXIS2_PLACEMENT_3D ( 'NONE', #199, #220, #35 ) ;
#234 = EDGE_LOOP ( 'NONE', ( #235 ) ) ;
#235 = ORIENTED_EDGE ( 'NONE', *, *, #117, .T. ) ;
#236 = LOCAL_TIME ( 9, 3, 35.00000000000000000, #158 ) ;
#237 = CARTESIAN_POINT ( 'NONE',  ( 2.000000000000033307, 0.0000000000000000000, 9.999999999999991118 ) ) ;
#238 = DIRECTION ( 'NONE',  ( 0.0000000000000000000, 1.000000000000000000, 0.0000000000000000000 ) ) ;
#239 = PLANE ( 'NONE',  #148 ) ;
#240 = DIRECTION ( 'NONE',  ( 3.491481338843133355E-15, -0.0000000000000000000, 1.000000000000000000 ) ) ;
#241 = ADVANCED_FACE ( 'NONE', ( #166 ), #239, .F. ) ;
#242 = APPLICATION_CONTEXT ( 'configuration controlled 3d designs of mechanical parts and assemblies' ) ;
#243 = MECHANICAL_CONTEXT ( 'NONE', #122, 'mechanical' ) ;
ENDSEC;
END-ISO-10303-21;
