ISO-10303-21;
HEADER;
FILE_DESCRIPTION (( 'STEP AP203' ),
    '1' );
FILE_NAME ('955092.step',
    '2021-11-17T08:26:59',
    ( '' ),
    ( '' ),
    'SwSTEP 2.0',
    'SolidWorks 2019',
    '' );
FILE_SCHEMA (( 'CONFIG_CONTROL_DESIGN' ));
ENDSEC;

DATA;
#1 = ADVANCED_FACE ( 'NONE', ( #79 ), #155, .F. ) ;
#2 = EDGE_LOOP ( 'NONE', ( #49 ) ) ;
#3 = CALENDAR_DATE ( 2021, 17, 11 ) ;
#4 = PERSON_AND_ORGANIZATION ( #201, #180 ) ;
#5 = APPROVAL ( #235, 'UNSPECIFIED' ) ;
#6 = AXIS2_PLACEMENT_3D ( 'NONE', #161, #164, #224 ) ;
#7 = LOCAL_TIME ( 9, 26, 59.00000000000000000, #194 ) ;
#8 = DIRECTION ( 'NONE',  ( 4.275831445896958607E-31, 1.000000000000000000, 1.224646799147353207E-16 ) ) ;
#9 = FACE_OUTER_BOUND ( 'NONE', #132, .T. ) ;
#10 = CARTESIAN_POINT ( 'NONE',  ( -7.654203852401942023E-31, 2.669980524493171302E-32, -2.192251113373581433E-16 ) ) ;
#11 = DIRECTION ( 'NONE',  ( -3.491481338843133355E-15, 1.224646799147353207E-16, -1.000000000000000000 ) ) ;
#12 = AXIS2_PLACEMENT_3D ( 'NONE', #185, #220, #179 ) ;
#13 = ORIENTED_EDGE ( 'NONE', *, *, #129, .F. ) ;
#14 = FACE_OUTER_BOUND ( 'NONE', #165, .T. ) ;
#15 = ADVANCED_FACE ( 'NONE', ( #24 ), #240, .T. ) ;
#16 = VERTEX_POINT ( 'NONE', #187 ) ;
#17 = APPLICATION_PROTOCOL_DEFINITION ( 'international standard', 'config_control_design', 1994, #190 ) ;
#18 = ORIENTED_EDGE ( 'NONE', *, *, #231, .F. ) ;
#19 = LOCAL_TIME ( 9, 26, 59.00000000000000000, #234 ) ;
#20 = EDGE_CURVE ( 'NONE', #29, #29, #153, .T. ) ;
#21 = ORIENTED_EDGE ( 'NONE', *, *, #129, .T. ) ;
#22 = PERSON_AND_ORGANIZATION ( #201, #180 ) ;
#23 = CARTESIAN_POINT ( 'NONE',  ( 3.491481338843132724E-14, 0.0000000000000000000, 9.999999999999998224 ) ) ;
#24 = FACE_OUTER_BOUND ( 'NONE', #143, .T. ) ;
#25 = DIRECTION ( 'NONE',  ( 1.000000000000000000, 0.0000000000000000000, -3.469446951953617344E-15 ) ) ;
#26 = PLANE ( 'NONE',  #184 ) ;
#27 = CARTESIAN_POINT ( 'NONE',  ( -2.999999999999951594, 0.0000000000000000000, 13.87298334620742857 ) ) ;
#28 = CC_DESIGN_PERSON_AND_ORGANIZATION_ASSIGNMENT ( #22, #115, ( #206 ) ) ;
#29 = VERTEX_POINT ( 'NONE', #96 ) ;
#30 = AXIS2_PLACEMENT_3D ( 'NONE', #84, #236, #65 ) ;
#31 = VERTEX_POINT ( 'NONE', #167 ) ;
#32 = EDGE_LOOP ( 'NONE', ( #98 ) ) ;
#33 = COORDINATED_UNIVERSAL_TIME_OFFSET ( 1, 0, .AHEAD. ) ;
#34 = APPROVAL_DATE_TIME ( #137, #109 ) ;
#35 = DATE_TIME_ROLE ( 'creation_date' ) ;
#36 = AXIS2_PLACEMENT_3D ( 'NONE', #10, #162, #238 ) ;
#37 = ORIENTED_EDGE ( 'NONE', *, *, #64, .T. ) ;
#38 = APPROVAL_STATUS ( 'not_yet_approved' ) ;
#39 = FACE_BOUND ( 'NONE', #91, .T. ) ;
#40 = ORIENTED_EDGE ( 'NONE', *, *, #205, .F. ) ;
#41 = AXIS2_PLACEMENT_3D ( 'NONE', #144, #181, #166 ) ;
#42 = FACE_OUTER_BOUND ( 'NONE', #46, .T. ) ;
#43 = CARTESIAN_POINT ( 'NONE',  ( -6.413747168845438786E-31, 0.0000000000000000000, -1.836970198721029934E-16 ) ) ;
#44 = CARTESIAN_POINT ( 'NONE',  ( 3.491481338843132724E-14, 0.0000000000000000000, 9.999999999999998224 ) ) ;
#45 = DIRECTION ( 'NONE',  ( 3.491481338843133355E-15, -1.217917285207545432E-16, 1.000000000000000000 ) ) ;
#46 = EDGE_LOOP ( 'NONE', ( #21 ) ) ;
#47 = MANIFOLD_SOLID_BREP ( 'Corps-Déplacer/Copier1[1]', #213 ) ;
#48 = DIRECTION ( 'NONE',  ( 1.000000000000000000, 0.0000000000000000000, 0.0000000000000000000 ) ) ;
#49 = ORIENTED_EDGE ( 'NONE', *, *, #20, .F. ) ;
#50 = MECHANICAL_CONTEXT ( 'NONE', #190, 'mechanical' ) ;
#51 = ORIENTED_EDGE ( 'NONE', *, *, #99, .T. ) ;
#52 = EDGE_LOOP ( 'NONE', ( #70 ) ) ;
#53 = LOCAL_TIME ( 9, 26, 59.00000000000000000, #156 ) ;
#54 = COORDINATED_UNIVERSAL_TIME_OFFSET ( 1, 0, .AHEAD. ) ;
#55 = MANIFOLD_SOLID_BREP ( 'Corps-Déplacer/Copier1[2]', #239 ) ;
#56 = CALENDAR_DATE ( 2021, 17, 11 ) ;
#57 = AXIS2_PLACEMENT_3D ( 'NONE', #63, #159, #106 ) ;
#58 = EDGE_CURVE ( 'NONE', #16, #16, #211, .T. ) ;
#59 = DATE_TIME_ROLE ( 'classification_date' ) ;
#60 = FACE_OUTER_BOUND ( 'NONE', #52, .T. ) ;
#61 = DIRECTION ( 'NONE',  ( 3.491481338843133355E-15, -0.0000000000000000000, 1.000000000000000000 ) ) ;
#62 = AXIS2_PLACEMENT_3D ( 'NONE', #23, #61, #25 ) ;
#63 = CARTESIAN_POINT ( 'NONE',  ( 6.982962677686257836E-16, -2.435834570415087537E-17, 0.1999999999999997335 ) ) ;
#64 = EDGE_CURVE ( 'NONE', #94, #94, #68, .T. ) ;
#65 = DIRECTION ( 'NONE',  ( 0.0000000000000000000, 1.000000000000000000, 0.0000000000000000000 ) ) ;
#66 = ORIENTED_EDGE ( 'NONE', *, *, #20, .T. ) ;
#67 = DIRECTION ( 'NONE',  ( -3.491481338843133355E-15, 1.224646799147353207E-16, -1.000000000000000000 ) ) ;
#68 = CIRCLE ( 'NONE', #30, 2.999999999999999556 ) ;
#69 = APPROVAL_PERSON_ORGANIZATION ( #131, #200, #157 ) ;
#70 = ORIENTED_EDGE ( 'NONE', *, *, #64, .F. ) ;
#71 = DIRECTION ( 'NONE',  ( 3.491481338843133355E-15, -1.224646799147353207E-16, 1.000000000000000000 ) ) ;
#72 = VERTEX_POINT ( 'NONE', #27 ) ;
#73 = AXIS2_PLACEMENT_3D ( 'NONE', #222, #111, #8 ) ;
#74 = CC_DESIGN_APPROVAL ( #109, ( #193 ) ) ;
#75 = PRODUCT_DEFINITION ( 'UNKNOWN', '', #214, #103 ) ;
#76 = PERSON_AND_ORGANIZATION ( #201, #180 ) ;
#77 = CC_DESIGN_PERSON_AND_ORGANIZATION_ASSIGNMENT ( #177, #133, ( #193 ) ) ;
#78 = PERSON_AND_ORGANIZATION_ROLE ( 'creator' ) ;
#79 = FACE_OUTER_BOUND ( 'NONE', #2, .T. ) ;
#80 = DATE_AND_TIME ( #216, #7 ) ;
#81 = APPLICATION_PROTOCOL_DEFINITION ( 'international standard', 'config_control_design', 1994, #195 ) ;
#82 = PERSON_AND_ORGANIZATION_ROLE ( 'design_supplier' ) ;
#83 = CIRCLE ( 'NONE', #217, 1.999999999999998224 ) ;
#84 = CARTESIAN_POINT ( 'NONE',  ( 1.972686956446370535E-13, -6.919254415182546126E-15, 56.50000000000000711 ) ) ;
#85 = CYLINDRICAL_SURFACE ( 'NONE', #6, 3.000000000000000000 ) ;
#86 = FACE_OUTER_BOUND ( 'NONE', #145, .T. ) ;
#87 = CC_DESIGN_PERSON_AND_ORGANIZATION_ASSIGNMENT ( #4, #78, ( #75 ) ) ;
#88 = AXIS2_PLACEMENT_3D ( 'NONE', #141, #45, #146 ) ;
#89 = CC_DESIGN_APPROVAL ( #200, ( #214 ) ) ;
#90 = DIRECTION ( 'NONE',  ( 4.275831445896958607E-31, 1.000000000000000000, 1.224646799147353207E-16 ) ) ;
#91 = EDGE_LOOP ( 'NONE', ( #51 ) ) ;
#92 = CARTESIAN_POINT ( 'NONE',  ( 1.990144363140586139E-13, -6.980486755139912911E-15, 57.00000000000000000 ) ) ;
#93 = ADVANCED_FACE ( 'NONE', ( #39, #60 ), #163, .T. ) ;
#94 = VERTEX_POINT ( 'NONE', #228 ) ;
#95 = CIRCLE ( 'NONE', #36, 1.799999999999999600 ) ;
#96 = CARTESIAN_POINT ( 'NONE',  ( 2.000000000000033307, 0.0000000000000000000, 9.999999999999991118 ) ) ;
#97 = ORIENTED_EDGE ( 'NONE', *, *, #99, .F. ) ;
#98 = ORIENTED_EDGE ( 'NONE', *, *, #205, .T. ) ;
#99 = EDGE_CURVE ( 'NONE', #113, #113, #230, .T. ) ;
#100 = LOCAL_TIME ( 9, 26, 59.00000000000000000, #54 ) ;
#101 = APPROVAL_DATE_TIME ( #175, #200 ) ;
#102 = CC_DESIGN_SECURITY_CLASSIFICATION ( #193, ( #214 ) ) ;
#103 = DESIGN_CONTEXT ( 'detailed design', #195, 'design' ) ;
#104 = PERSON_AND_ORGANIZATION ( #201, #180 ) ;
#105 = APPROVAL_STATUS ( 'not_yet_approved' ) ;
#106 = DIRECTION ( 'NONE',  ( -4.333342374871280669E-31, -1.000000000000000000, -1.219727444046192488E-16 ) ) ;
#107 = APPROVAL_PERSON_ORGANIZATION ( #76, #109, #118 ) ;
#108 = FACE_OUTER_BOUND ( 'NONE', #191, .T. ) ;
#109 = APPROVAL ( #105, 'UNSPECIFIED' ) ;
#110 = DIRECTION ( 'NONE',  ( 1.000000000000000000, 0.0000000000000000000, -3.491481338843133355E-15 ) ) ;
#111 = DIRECTION ( 'NONE',  ( -3.491481338843133355E-15, 1.224646799147353207E-16, -1.000000000000000000 ) ) ;
#112 = AXIS2_PLACEMENT_3D ( 'NONE', #186, #71, #210 ) ;
#113 = VERTEX_POINT ( 'NONE', #208 ) ;
#114 = FACE_OUTER_BOUND ( 'NONE', #203, .T. ) ;
#115 = PERSON_AND_ORGANIZATION_ROLE ( 'design_owner' ) ;
#116 = CALENDAR_DATE ( 2021, 17, 11 ) ;
#117 = CIRCLE ( 'NONE', #12, 3.000000000000000000 ) ;
#118 = APPROVAL_ROLE ( '' ) ;
#119 = PERSON_AND_ORGANIZATION ( #201, #180 ) ;
#120 = FACE_OUTER_BOUND ( 'NONE', #168, .T. ) ;
#121 = FACE_BOUND ( 'NONE', #32, .T. ) ;
#122 = FACE_OUTER_BOUND ( 'NONE', #209, .T. ) ;
#123 = DIRECTION ( 'NONE',  ( 3.491481338843133355E-15, -0.0000000000000000000, 1.000000000000000000 ) ) ;
#124 = AXIS2_PLACEMENT_3D ( 'NONE', #212, #227, #48 ) ;
#125 = CARTESIAN_POINT ( 'NONE',  ( 3.491481338843133355E-14, 2.249639673992784496E-32, 10.00000000000000000 ) ) ;
#126 =( LENGTH_UNIT ( ) NAMED_UNIT ( * ) SI_UNIT ( .MILLI., .METRE. ) );
#127 = ORIENTED_EDGE ( 'NONE', *, *, #58, .T. ) ;
#128 =( NAMED_UNIT ( * ) PLANE_ANGLE_UNIT ( ) SI_UNIT ( $, .RADIAN. ) );
#129 = EDGE_CURVE ( 'NONE', #72, #72, #117, .T. ) ;
#130 = CONICAL_SURFACE ( 'NONE', #57, 2.000000000000000000, 0.7853981633974497223 ) ;
#131 = PERSON_AND_ORGANIZATION ( #201, #180 ) ;
#132 = EDGE_LOOP ( 'NONE', ( #66 ) ) ;
#133 = PERSON_AND_ORGANIZATION_ROLE ( 'classification_officer' ) ;
#134 = ADVANCED_FACE ( 'NONE', ( #223, #9 ), #150, .F. ) ;
#135 = APPROVAL_PERSON_ORGANIZATION ( #119, #5, #196 ) ;
#136 = PERSON_AND_ORGANIZATION ( #201, #180 ) ;
#137 = DATE_AND_TIME ( #116, #189 ) ;
#138 = DIRECTION ( 'NONE',  ( 0.0000000000000000000, 1.000000000000000000, 0.0000000000000000000 ) ) ;
#139 = EDGE_LOOP ( 'NONE', ( #13 ) ) ;
#140 = CC_DESIGN_PERSON_AND_ORGANIZATION_ASSIGNMENT ( #104, #199, ( #214 ) ) ;
#141 = CARTESIAN_POINT ( 'NONE',  ( 6.982962677686257836E-16, -2.435834570415087537E-17, 0.1999999999999997335 ) ) ;
#142 = DIRECTION ( 'NONE',  ( -3.491481338843133355E-15, 1.224646799147353207E-16, -1.000000000000000000 ) ) ;
#143 = EDGE_LOOP ( 'NONE', ( #40 ) ) ;
#144 = CARTESIAN_POINT ( 'NONE',  ( 3.491481338843133355E-14, 0.0000000000000000000, 10.00000000000000000 ) ) ;
#145 = EDGE_LOOP ( 'NONE', ( #229 ) ) ;
#146 = DIRECTION ( 'NONE',  ( -4.333342374871280669E-31, -1.000000000000000000, -1.219727444046192488E-16 ) ) ;
#147 = AXIS2_PLACEMENT_3D ( 'NONE', #221, #142, #138 ) ;
#148 = PLANE ( 'NONE',  #112 ) ;
#149 = PRODUCT_RELATED_PRODUCT_CATEGORY ( 'detail', '', ( #206 ) ) ;
#150 = TOROIDAL_SURFACE ( 'NONE', #41, 9.999999999999998224, 8.000000000000000000 ) ;
#151 = ADVANCED_BREP_SHAPE_REPRESENTATION ( '955092', ( #47, #55, #124 ), #169 ) ;
#152 = ADVANCED_FACE ( 'NONE', ( #120, #42 ), #85, .T. ) ;
#153 = CIRCLE ( 'NONE', #62, 1.999999999999998224 ) ;
#154 = APPROVAL_DATE_TIME ( #232, #5 ) ;
#155 = PLANE ( 'NONE',  #192 ) ;
#156 = COORDINATED_UNIVERSAL_TIME_OFFSET ( 1, 0, .AHEAD. ) ;
#157 = APPROVAL_ROLE ( '' ) ;
#158 = CC_DESIGN_DATE_AND_TIME_ASSIGNMENT ( #80, #59, ( #193 ) ) ;
#159 = DIRECTION ( 'NONE',  ( 3.491481338843133355E-15, -1.217917285207545432E-16, 1.000000000000000000 ) ) ;
#160 = PRODUCT_DEFINITION_SHAPE ( 'NONE', 'NONE',  #75 ) ;
#161 = CARTESIAN_POINT ( 'NONE',  ( 0.0000000000000000000, 0.0000000000000000000, 0.0000000000000000000 ) ) ;
#162 = DIRECTION ( 'NONE',  ( 3.491481338843133355E-15, -1.217917285207545432E-16, 1.000000000000000000 ) ) ;
#163 = CONICAL_SURFACE ( 'NONE', #147, 2.999999999999999556, 0.7853981633974548293 ) ;
#164 = DIRECTION ( 'NONE',  ( -3.491481338843133355E-15, 1.224646799147353207E-16, -1.000000000000000000 ) ) ;
#165 = EDGE_LOOP ( 'NONE', ( #127 ) ) ;
#166 = DIRECTION ( 'NONE',  ( 1.000000000000000000, 0.0000000000000000000, -3.491481338843133355E-15 ) ) ;
#167 = CARTESIAN_POINT ( 'NONE',  ( -1.530840770480388405E-30, -1.799999999999999600, -4.384502226747162866E-16 ) ) ;
#168 = EDGE_LOOP ( 'NONE', ( #37 ) ) ;
#169 =( GEOMETRIC_REPRESENTATION_CONTEXT ( 3 ) GLOBAL_UNCERTAINTY_ASSIGNED_CONTEXT ( ( #198 ) ) GLOBAL_UNIT_ASSIGNED_CONTEXT ( ( #126, #128, #170 ) ) REPRESENTATION_CONTEXT ( 'NONE', 'WORKASPACE' ) );
#170 =( NAMED_UNIT ( * ) SI_UNIT ( $, .STERADIAN. ) SOLID_ANGLE_UNIT ( ) );
#171 = CC_DESIGN_DATE_AND_TIME_ASSIGNMENT ( #219, #35, ( #75 ) ) ;
#172 = VERTEX_POINT ( 'NONE', #243 ) ;
#173 = CC_DESIGN_APPROVAL ( #5, ( #75 ) ) ;
#174 = SECURITY_CLASSIFICATION_LEVEL ( 'unclassified' ) ;
#175 = DATE_AND_TIME ( #233, #100 ) ;
#176 = CC_DESIGN_PERSON_AND_ORGANIZATION_ASSIGNMENT ( #136, #82, ( #214 ) ) ;
#177 = PERSON_AND_ORGANIZATION ( #201, #180 ) ;
#178 = ADVANCED_FACE ( 'NONE', ( #121, #86 ), #130, .T. ) ;
#179 = DIRECTION ( 'NONE',  ( -1.000000000000000000, 0.0000000000000000000, 3.469446951953614189E-15 ) ) ;
#180 = ORGANIZATION ( 'UNSPECIFIED', 'UNSPECIFIED', '' ) ;
#181 = DIRECTION ( 'NONE',  ( 3.491481338843133355E-15, -0.0000000000000000000, 1.000000000000000000 ) ) ;
#182 = CYLINDRICAL_SURFACE ( 'NONE', #188, 1.999999999999999112 ) ;
#183 = CARTESIAN_POINT ( 'NONE',  ( 1.990144363140586139E-13, 1.874699728327311336E-32, 57.00000000000000000 ) ) ;
#184 = AXIS2_PLACEMENT_3D ( 'NONE', #183, #11, #90 ) ;
#185 = CARTESIAN_POINT ( 'NONE',  ( 4.843726246736477116E-14, 0.0000000000000000000, 13.87298334620741969 ) ) ;
#186 = CARTESIAN_POINT ( 'NONE',  ( 3.491481338843133355E-14, 2.249639673992784496E-32, 10.00000000000000000 ) ) ;
#187 = CARTESIAN_POINT ( 'NONE',  ( 6.982962677686248961E-16, -2.000000000000000000, 0.1999999999999994837 ) ) ;
#188 = AXIS2_PLACEMENT_3D ( 'NONE', #43, #204, #110 ) ;
#189 = LOCAL_TIME ( 9, 26, 59.00000000000000000, #33 ) ;
#190 = APPLICATION_CONTEXT ( 'configuration controlled 3d designs of mechanical parts and assemblies' ) ;
#191 = EDGE_LOOP ( 'NONE', ( #18 ) ) ;
#192 = AXIS2_PLACEMENT_3D ( 'NONE', #125, #242, #237 ) ;
#193 = SECURITY_CLASSIFICATION ( '', '', #174 ) ;
#194 = COORDINATED_UNIVERSAL_TIME_OFFSET ( 1, 0, .AHEAD. ) ;
#195 = APPLICATION_CONTEXT ( 'configuration controlled 3d designs of mechanical parts and assemblies' ) ;
#196 = APPROVAL_ROLE ( '' ) ;
#197 = ADVANCED_FACE ( 'NONE', ( #108, #14 ), #182, .T. ) ;
#198 = UNCERTAINTY_MEASURE_WITH_UNIT (LENGTH_MEASURE( 1.000000000000000082E-05 ), #126, 'distance_accuracy_value', 'NONE');
#199 = PERSON_AND_ORGANIZATION_ROLE ( 'creator' ) ;
#200 = APPROVAL ( #38, 'UNSPECIFIED' ) ;
#201 = PERSON ( 'UNSPECIFIED', 'UNSPECIFIED', 'UNSPECIFIED', ('UNSPECIFIED'), ('UNSPECIFIED'), ('UNSPECIFIED') ) ;
#202 = DIRECTION ( 'NONE',  ( 0.0000000000000000000, 1.000000000000000000, 0.0000000000000000000 ) ) ;
#203 = EDGE_LOOP ( 'NONE', ( #226 ) ) ;
#204 = DIRECTION ( 'NONE',  ( 3.491481338843133355E-15, -0.0000000000000000000, 1.000000000000000000 ) ) ;
#205 = EDGE_CURVE ( 'NONE', #31, #31, #95, .T. ) ;
#206 = PRODUCT ( '955092', '955092', '', ( #50 ) ) ;
#207 = DIRECTION ( 'NONE',  ( 1.000000000000000000, 0.0000000000000000000, -3.469446951953617344E-15 ) ) ;
#208 = CARTESIAN_POINT ( 'NONE',  ( 1.990144363140586139E-13, 2.499999999999992895, 57.00000000000000000 ) ) ;
#209 = EDGE_LOOP ( 'NONE', ( #97 ) ) ;
#210 = DIRECTION ( 'NONE',  ( -4.275831445896958607E-31, -1.000000000000000000, -1.224646799147353207E-16 ) ) ;
#211 = CIRCLE ( 'NONE', #88, 2.000000000000000000 ) ;
#212 = CARTESIAN_POINT ( 'NONE',  ( 0.0000000000000000000, 0.0000000000000000000, 0.0000000000000000000 ) ) ;
#213 = CLOSED_SHELL ( 'NONE', ( #152, #93, #215, #134, #1 ) ) ;
#214 = PRODUCT_DEFINITION_FORMATION_WITH_SPECIFIED_SOURCE ( 'ANY', '', #206, .NOT_KNOWN. ) ;
#215 = ADVANCED_FACE ( 'NONE', ( #122 ), #26, .F. ) ;
#216 = CALENDAR_DATE ( 2021, 17, 11 ) ;
#217 = AXIS2_PLACEMENT_3D ( 'NONE', #44, #123, #207 ) ;
#218 = SHAPE_DEFINITION_REPRESENTATION ( #160, #151 ) ;
#219 = DATE_AND_TIME ( #56, #19 ) ;
#220 = DIRECTION ( 'NONE',  ( 3.491481338843133355E-15, -0.0000000000000000000, 1.000000000000000000 ) ) ;
#221 = CARTESIAN_POINT ( 'NONE',  ( 1.972686956446370535E-13, -6.919254415182546126E-15, 56.50000000000000711 ) ) ;
#222 = CARTESIAN_POINT ( 'NONE',  ( -6.413747168845438786E-31, 2.249639673992786412E-32, -1.836970198721029934E-16 ) ) ;
#223 = FACE_OUTER_BOUND ( 'NONE', #139, .T. ) ;
#224 = DIRECTION ( 'NONE',  ( 4.275831445896959482E-31, 1.000000000000000000, 1.224646799147353207E-16 ) ) ;
#225 = AXIS2_PLACEMENT_3D ( 'NONE', #92, #67, #202 ) ;
#226 = ORIENTED_EDGE ( 'NONE', *, *, #231, .T. ) ;
#227 = DIRECTION ( 'NONE',  ( 0.0000000000000000000, 0.0000000000000000000, 1.000000000000000000 ) ) ;
#228 = CARTESIAN_POINT ( 'NONE',  ( 1.972686956446370535E-13, 2.999999999999992895, 56.50000000000000711 ) ) ;
#229 = ORIENTED_EDGE ( 'NONE', *, *, #58, .F. ) ;
#230 = CIRCLE ( 'NONE', #225, 2.499999999999999556 ) ;
#231 = EDGE_CURVE ( 'NONE', #172, #172, #83, .T. ) ;
#232 = DATE_AND_TIME ( #3, #53 ) ;
#233 = CALENDAR_DATE ( 2021, 17, 11 ) ;
#234 = COORDINATED_UNIVERSAL_TIME_OFFSET ( 1, 0, .AHEAD. ) ;
#235 = APPROVAL_STATUS ( 'not_yet_approved' ) ;
#236 = DIRECTION ( 'NONE',  ( -3.491481338843133355E-15, 1.224646799147353207E-16, -1.000000000000000000 ) ) ;
#237 = DIRECTION ( 'NONE',  ( -4.275831445896958607E-31, -1.000000000000000000, -1.224646799147353207E-16 ) ) ;
#238 = DIRECTION ( 'NONE',  ( -4.252335473556635820E-31, -1.000000000000000000, -1.217917285207545432E-16 ) ) ;
#239 = CLOSED_SHELL ( 'NONE', ( #197, #241, #178, #15 ) ) ;
#240 = PLANE ( 'NONE',  #73 ) ;
#241 = ADVANCED_FACE ( 'NONE', ( #114 ), #148, .T. ) ;
#242 = DIRECTION ( 'NONE',  ( 3.491481338843133355E-15, -1.224646799147353207E-16, 1.000000000000000000 ) ) ;
#243 = CARTESIAN_POINT ( 'NONE',  ( 2.000000000000033307, 0.0000000000000000000, 9.999999999999991118 ) ) ;
ENDSEC;
END-ISO-10303-21;
