ISO-10303-21;
HEADER;
FILE_DESCRIPTION (( 'STEP AP203' ),
    '1' );
FILE_NAME ('955089.step',
    '2021-11-17T08:26:58',
    ( '' ),
    ( '' ),
    'SwSTEP 2.0',
    'SolidWorks 2019',
    '' );
FILE_SCHEMA (( 'CONFIG_CONTROL_DESIGN' ));
ENDSEC;

DATA;
#1 = DATE_AND_TIME ( #16, #20 ) ;
#2 = SECURITY_CLASSIFICATION ( '', '', #19 ) ;
#3 = APPLICATION_PROTOCOL_DEFINITION ( 'international standard', 'config_control_design', 1994, #60 ) ;
#4 = DIRECTION ( 'NONE',  ( -1.000000000000000000, 0.0000000000000000000, 3.469446951953614189E-15 ) ) ;
#5 = EDGE_LOOP ( 'NONE', ( #142 ) ) ;
#6 = DIRECTION ( 'NONE',  ( 3.491481338843133355E-15, -1.217917285207545432E-16, 1.000000000000000000 ) ) ;
#7 = EDGE_CURVE ( 'NONE', #154, #154, #210, .T. ) ;
#8 = CARTESIAN_POINT ( 'NONE',  ( 6.982962677686255864E-16, -2.435834570415086921E-17, 0.1999999999999996780 ) ) ;
#9 = FACE_OUTER_BOUND ( 'NONE', #5, .T. ) ;
#10 = CARTESIAN_POINT ( 'NONE',  ( -2.999999999999944933, 0.0000000000000000000, 15.78388218141502719 ) ) ;
#11 = ORGANIZATION ( 'UNSPECIFIED', 'UNSPECIFIED', '' ) ;
#12 = DIRECTION ( 'NONE',  ( 3.491481338843133355E-15, -1.217917285207545432E-16, 1.000000000000000000 ) ) ;
#13 =( NAMED_UNIT ( * ) SI_UNIT ( $, .STERADIAN. ) SOLID_ANGLE_UNIT ( ) );
#14 = CALENDAR_DATE ( 2021, 17, 11 ) ;
#15 = CLOSED_SHELL ( 'NONE', ( #119, #162, #166, #189 ) ) ;
#16 = CALENDAR_DATE ( 2021, 17, 11 ) ;
#17 = ORIENTED_EDGE ( 'NONE', *, *, #182, .F. ) ;
#18 = APPROVAL_DATE_TIME ( #30, #87 ) ;
#19 = SECURITY_CLASSIFICATION_LEVEL ( 'unclassified' ) ;
#20 = LOCAL_TIME ( 9, 26, 58.00000000000000000, #177 ) ;
#21 = DIRECTION ( 'NONE',  ( -3.491481338843133355E-15, 1.224646799147353207E-16, -1.000000000000000000 ) ) ;
#22 = EDGE_LOOP ( 'NONE', ( #94 ) ) ;
#23 = DIRECTION ( 'NONE',  ( 3.491481338843133355E-15, -0.0000000000000000000, 1.000000000000000000 ) ) ;
#24 = CARTESIAN_POINT ( 'NONE',  ( 4.538925740496073362E-14, 2.249639673992783675E-32, 13.00000000000000000 ) ) ;
#25 = AXIS2_PLACEMENT_3D ( 'NONE', #216, #40, #234 ) ;
#26 = APPROVAL_PERSON_ORGANIZATION ( #118, #170, #198 ) ;
#27 = CARTESIAN_POINT ( 'NONE',  ( -6.413747168845438786E-31, 2.249639673992786412E-32, -1.836970198721029934E-16 ) ) ;
#28 = CC_DESIGN_PERSON_AND_ORGANIZATION_ASSIGNMENT ( #104, #158, ( #2 ) ) ;
#29 = AXIS2_PLACEMENT_3D ( 'NONE', #24, #80, #151 ) ;
#30 = DATE_AND_TIME ( #179, #44 ) ;
#31 = CARTESIAN_POINT ( 'NONE',  ( 0.0000000000000000000, 0.0000000000000000000, 0.0000000000000000000 ) ) ;
#32 = PERSON_AND_ORGANIZATION_ROLE ( 'design_supplier' ) ;
#33 = CALENDAR_DATE ( 2021, 17, 11 ) ;
#34 = COORDINATED_UNIVERSAL_TIME_OFFSET ( 1, 0, .AHEAD. ) ;
#35 = AXIS2_PLACEMENT_3D ( 'NONE', #8, #97, #188 ) ;
#36 = DIRECTION ( 'NONE',  ( 0.0000000000000000000, 1.000000000000000000, 0.0000000000000000000 ) ) ;
#37 = UNCERTAINTY_MEASURE_WITH_UNIT (LENGTH_MEASURE( 1.000000000000000082E-05 ), #65, 'distance_accuracy_value', 'NONE');
#38 = ORIENTED_EDGE ( 'NONE', *, *, #204, .T. ) ;
#39 = AXIS2_PLACEMENT_3D ( 'NONE', #91, #23, #145 ) ;
#40 = DIRECTION ( 'NONE',  ( -3.491481338843133355E-15, 1.224646799147353207E-16, -1.000000000000000000 ) ) ;
#41 = DIRECTION ( 'NONE',  ( 3.491481338843133355E-15, -1.224646799147353207E-16, 1.000000000000000000 ) ) ;
#42 = ADVANCED_FACE ( 'NONE', ( #137, #197 ), #146, .F. ) ;
#43 = AXIS2_PLACEMENT_3D ( 'NONE', #208, #21, #96 ) ;
#44 = LOCAL_TIME ( 9, 26, 58.00000000000000000, #34 ) ;
#45 = VERTEX_POINT ( 'NONE', #153 ) ;
#46 = CC_DESIGN_DATE_AND_TIME_ASSIGNMENT ( #1, #202, ( #2 ) ) ;
#47 = FACE_OUTER_BOUND ( 'NONE', #224, .T. ) ;
#48 = COORDINATED_UNIVERSAL_TIME_OFFSET ( 1, 0, .AHEAD. ) ;
#49 = DIRECTION ( 'NONE',  ( -4.252335473556634944E-31, -1.000000000000000000, -1.217917285207545432E-16 ) ) ;
#50 = MANIFOLD_SOLID_BREP ( 'Corps-Déplacer/Copier1[2]', #15 ) ;
#51 = DATE_AND_TIME ( #33, #72 ) ;
#52 = PERSON_AND_ORGANIZATION ( #108, #11 ) ;
#53 = AXIS2_PLACEMENT_3D ( 'NONE', #167, #78, #190 ) ;
#54 = APPROVAL_STATUS ( 'not_yet_approved' ) ;
#55 = CARTESIAN_POINT ( 'NONE',  ( 4.538925740496072731E-14, 0.0000000000000000000, 12.99999999999999822 ) ) ;
#56 = EDGE_LOOP ( 'NONE', ( #214 ) ) ;
#57 = DIRECTION ( 'NONE',  ( -3.491481338843133355E-15, 1.224646799147353207E-16, -1.000000000000000000 ) ) ;
#58 = PRODUCT ( '955089', '955089', '', ( #69 ) ) ;
#59 = EDGE_LOOP ( 'NONE', ( #120 ) ) ;
#60 = APPLICATION_CONTEXT ( 'configuration controlled 3d designs of mechanical parts and assemblies' ) ;
#61 = CARTESIAN_POINT ( 'NONE',  ( -1.956074317836051549E-30, -2.299999999999999378, -5.602419511954707313E-16 ) ) ;
#62 = AXIS2_PLACEMENT_3D ( 'NONE', #55, #127, #147 ) ;
#63 = CC_DESIGN_APPROVAL ( #87, ( #2 ) ) ;
#64 = CARTESIAN_POINT ( 'NONE',  ( 2.500000000000042633, 0.0000000000000000000, 12.99999999999998934 ) ) ;
#65 =( LENGTH_UNIT ( ) NAMED_UNIT ( * ) SI_UNIT ( .MILLI., .METRE. ) );
#66 = VERTEX_POINT ( 'NONE', #192 ) ;
#67 = AXIS2_PLACEMENT_3D ( 'NONE', #130, #74, #231 ) ;
#68 = DIRECTION ( 'NONE',  ( 0.0000000000000000000, 0.0000000000000000000, 1.000000000000000000 ) ) ;
#69 = MECHANICAL_CONTEXT ( 'NONE', #195, 'mechanical' ) ;
#70 = EDGE_LOOP ( 'NONE', ( #232 ) ) ;
#71 = APPROVAL_STATUS ( 'not_yet_approved' ) ;
#72 = LOCAL_TIME ( 9, 26, 58.00000000000000000, #48 ) ;
#73 = CIRCLE ( 'NONE', #53, 2.999999999999999556 ) ;
#74 = DIRECTION ( 'NONE',  ( -3.491481338843133355E-15, 1.224646799147353207E-16, -1.000000000000000000 ) ) ;
#75 = FACE_BOUND ( 'NONE', #70, .T. ) ;
#76 = CC_DESIGN_PERSON_AND_ORGANIZATION_ASSIGNMENT ( #52, #144, ( #58 ) ) ;
#77 = EDGE_LOOP ( 'NONE', ( #17 ) ) ;
#78 = DIRECTION ( 'NONE',  ( -3.491481338843133355E-15, 1.224646799147353207E-16, -1.000000000000000000 ) ) ;
#79 = CC_DESIGN_DATE_AND_TIME_ASSIGNMENT ( #86, #160, ( #121 ) ) ;
#80 = DIRECTION ( 'NONE',  ( 3.491481338843133355E-15, -1.224646799147353207E-16, 1.000000000000000000 ) ) ;
#81 = CARTESIAN_POINT ( 'NONE',  ( 1.990144363140586139E-13, 2.499999999999992895, 57.00000000000000000 ) ) ;
#82 = CIRCLE ( 'NONE', #241, 2.499999999999999556 ) ;
#83 = CC_DESIGN_APPROVAL ( #239, ( #121 ) ) ;
#84 = PLANE ( 'NONE',  #163 ) ;
#85 = APPROVAL_DATE_TIME ( #122, #170 ) ;
#86 = DATE_AND_TIME ( #228, #164 ) ;
#87 = APPROVAL ( #71, 'UNSPECIFIED' ) ;
#88 = EDGE_LOOP ( 'NONE', ( #159 ) ) ;
#89 = PERSON_AND_ORGANIZATION ( #108, #11 ) ;
#90 = APPLICATION_PROTOCOL_DEFINITION ( 'international standard', 'config_control_design', 1994, #195 ) ;
#91 = CARTESIAN_POINT ( 'NONE',  ( -6.413747168845438786E-31, 0.0000000000000000000, -1.836970198721029934E-16 ) ) ;
#92 = ORIENTED_EDGE ( 'NONE', *, *, #140, .T. ) ;
#93 = AXIS2_PLACEMENT_3D ( 'NONE', #193, #165, #4 ) ;
#94 = ORIENTED_EDGE ( 'NONE', *, *, #140, .F. ) ;
#95 = CARTESIAN_POINT ( 'NONE',  ( 1.990144363140586139E-13, -6.980486755139912911E-15, 57.00000000000000000 ) ) ;
#96 = DIRECTION ( 'NONE',  ( 0.0000000000000000000, 1.000000000000000000, 0.0000000000000000000 ) ) ;
#97 = DIRECTION ( 'NONE',  ( 3.491481338843133355E-15, -1.217917285207545432E-16, 1.000000000000000000 ) ) ;
#98 = EDGE_LOOP ( 'NONE', ( #38 ) ) ;
#99 = AXIS2_PLACEMENT_3D ( 'NONE', #128, #6, #49 ) ;
#100 = CARTESIAN_POINT ( 'NONE',  ( 4.538925740496073362E-14, 0.0000000000000000000, 13.00000000000000000 ) ) ;
#101 = FACE_OUTER_BOUND ( 'NONE', #103, .T. ) ;
#102 = CC_DESIGN_PERSON_AND_ORGANIZATION_ASSIGNMENT ( #203, #200, ( #121 ) ) ;
#103 = EDGE_LOOP ( 'NONE', ( #199 ) ) ;
#104 = PERSON_AND_ORGANIZATION ( #108, #11 ) ;
#105 = PERSON_AND_ORGANIZATION ( #108, #11 ) ;
#106 = APPROVAL_DATE_TIME ( #51, #239 ) ;
#107 = EDGE_CURVE ( 'NONE', #136, #136, #185, .T. ) ;
#108 = PERSON ( 'UNSPECIFIED', 'UNSPECIFIED', 'UNSPECIFIED', ('UNSPECIFIED'), ('UNSPECIFIED'), ('UNSPECIFIED') ) ;
#109 = ORIENTED_EDGE ( 'NONE', *, *, #243, .T. ) ;
#110 = ADVANCED_FACE ( 'NONE', ( #75, #184 ), #126, .T. ) ;
#111 = DIRECTION ( 'NONE',  ( -4.275831445896958607E-31, -1.000000000000000000, -1.224646799147353207E-16 ) ) ;
#112 = CC_DESIGN_APPROVAL ( #170, ( #230 ) ) ;
#113 = VERTEX_POINT ( 'NONE', #81 ) ;
#114 = FACE_OUTER_BOUND ( 'NONE', #22, .T. ) ;
#115 = ADVANCED_FACE ( 'NONE', ( #149 ), #205, .F. ) ;
#116 = CYLINDRICAL_SURFACE ( 'NONE', #25, 3.000000000000000000 ) ;
#117 = CONICAL_SURFACE ( 'NONE', #35, 2.500000000000000000, 0.7853981633974497223 ) ;
#118 = PERSON_AND_ORGANIZATION ( #108, #11 ) ;
#119 = ADVANCED_FACE ( 'NONE', ( #134, #180 ), #186, .T. ) ;
#120 = ORIENTED_EDGE ( 'NONE', *, *, #7, .F. ) ;
#121 = PRODUCT_DEFINITION ( 'UNKNOWN', '', #230, #187 ) ;
#122 = DATE_AND_TIME ( #14, #217 ) ;
#123 =( GEOMETRIC_REPRESENTATION_CONTEXT ( 3 ) GLOBAL_UNCERTAINTY_ASSIGNED_CONTEXT ( ( #37 ) ) GLOBAL_UNIT_ASSIGNED_CONTEXT ( ( #65, #194, #13 ) ) REPRESENTATION_CONTEXT ( 'NONE', 'WORKASPACE' ) );
#124 = COORDINATED_UNIVERSAL_TIME_OFFSET ( 1, 0, .AHEAD. ) ;
#125 = APPROVAL_ROLE ( '' ) ;
#126 = CONICAL_SURFACE ( 'NONE', #43, 2.999999999999999556, 0.7853981633974548293 ) ;
#127 = DIRECTION ( 'NONE',  ( 3.491481338843133355E-15, -0.0000000000000000000, 1.000000000000000000 ) ) ;
#128 = CARTESIAN_POINT ( 'NONE',  ( -9.780371589180257743E-31, 3.411641781296829419E-32, -2.801209755977353656E-16 ) ) ;
#129 = CC_DESIGN_PERSON_AND_ORGANIZATION_ASSIGNMENT ( #242, #32, ( #230 ) ) ;
#130 = CARTESIAN_POINT ( 'NONE',  ( 1.990144363140586139E-13, 1.874699728327311336E-32, 57.00000000000000000 ) ) ;
#131 = ORIENTED_EDGE ( 'NONE', *, *, #155, .F. ) ;
#132 = AXIS2_PLACEMENT_3D ( 'NONE', #206, #41, #111 ) ;
#133 = FACE_OUTER_BOUND ( 'NONE', #98, .T. ) ;
#134 = FACE_OUTER_BOUND ( 'NONE', #88, .T. ) ;
#135 = DIRECTION ( 'NONE',  ( 1.000000000000000000, 0.0000000000000000000, -3.491481338843133355E-15 ) ) ;
#136 = VERTEX_POINT ( 'NONE', #10 ) ;
#137 = FACE_OUTER_BOUND ( 'NONE', #148, .T. ) ;
#138 = CARTESIAN_POINT ( 'NONE',  ( 4.538925740496072731E-14, 0.0000000000000000000, 12.99999999999999822 ) ) ;
#139 = APPROVAL_STATUS ( 'not_yet_approved' ) ;
#140 = EDGE_CURVE ( 'NONE', #45, #45, #236, .T. ) ;
#141 = EDGE_LOOP ( 'NONE', ( #92 ) ) ;
#142 = ORIENTED_EDGE ( 'NONE', *, *, #182, .T. ) ;
#143 = APPROVAL_PERSON_ORGANIZATION ( #105, #239, #222 ) ;
#144 = PERSON_AND_ORGANIZATION_ROLE ( 'design_owner' ) ;
#145 = DIRECTION ( 'NONE',  ( 1.000000000000000000, 0.0000000000000000000, -3.491481338843133355E-15 ) ) ;
#146 = TOROIDAL_SURFACE ( 'NONE', #173, 10.49999999999999822, 8.000000000000001776 ) ;
#147 = DIRECTION ( 'NONE',  ( 1.000000000000000000, 0.0000000000000000000, -3.469446951953618528E-15 ) ) ;
#148 = EDGE_LOOP ( 'NONE', ( #183 ) ) ;
#149 = FACE_OUTER_BOUND ( 'NONE', #229, .T. ) ;
#150 = CIRCLE ( 'NONE', #156, 2.500000000000000000 ) ;
#151 = DIRECTION ( 'NONE',  ( -4.275831445896958607E-31, -1.000000000000000000, -1.224646799147353207E-16 ) ) ;
#152 = DIRECTION ( 'NONE',  ( 4.275831445896958607E-31, 1.000000000000000000, 1.224646799147353207E-16 ) ) ;
#153 = CARTESIAN_POINT ( 'NONE',  ( 2.500000000000042633, 0.0000000000000000000, 12.99999999999998934 ) ) ;
#154 = VERTEX_POINT ( 'NONE', #61 ) ;
#155 = EDGE_CURVE ( 'NONE', #113, #113, #82, .T. ) ;
#156 = AXIS2_PLACEMENT_3D ( 'NONE', #171, #12, #212 ) ;
#157 = PERSON_AND_ORGANIZATION_ROLE ( 'creator' ) ;
#158 = PERSON_AND_ORGANIZATION_ROLE ( 'classification_officer' ) ;
#159 = ORIENTED_EDGE ( 'NONE', *, *, #204, .F. ) ;
#160 = DATE_TIME_ROLE ( 'creation_date' ) ;
#161 = AXIS2_PLACEMENT_3D ( 'NONE', #138, #172, #219 ) ;
#162 = ADVANCED_FACE ( 'NONE', ( #133 ), #211, .T. ) ;
#163 = AXIS2_PLACEMENT_3D ( 'NONE', #27, #169, #152 ) ;
#164 = LOCAL_TIME ( 9, 26, 58.00000000000000000, #124 ) ;
#165 = DIRECTION ( 'NONE',  ( 3.491481338843133355E-15, -0.0000000000000000000, 1.000000000000000000 ) ) ;
#166 = ADVANCED_FACE ( 'NONE', ( #221, #47 ), #117, .T. ) ;
#167 = CARTESIAN_POINT ( 'NONE',  ( 1.972686956446370535E-13, -6.919254415182546126E-15, 56.50000000000000711 ) ) ;
#168 = ADVANCED_FACE ( 'NONE', ( #114 ), #240, .F. ) ;
#169 = DIRECTION ( 'NONE',  ( -3.491481338843133355E-15, 1.224646799147353207E-16, -1.000000000000000000 ) ) ;
#170 = APPROVAL ( #54, 'UNSPECIFIED' ) ;
#171 = CARTESIAN_POINT ( 'NONE',  ( 6.982962677686255864E-16, -2.435834570415086921E-17, 0.1999999999999996780 ) ) ;
#172 = DIRECTION ( 'NONE',  ( 3.491481338843133355E-15, -0.0000000000000000000, 1.000000000000000000 ) ) ;
#173 = AXIS2_PLACEMENT_3D ( 'NONE', #100, #235, #135 ) ;
#174 = FACE_OUTER_BOUND ( 'NONE', #59, .T. ) ;
#175 = COORDINATED_UNIVERSAL_TIME_OFFSET ( 1, 0, .AHEAD. ) ;
#176 = PRODUCT_DEFINITION_SHAPE ( 'NONE', 'NONE',  #121 ) ;
#177 = COORDINATED_UNIVERSAL_TIME_OFFSET ( 1, 0, .AHEAD. ) ;
#178 = PRODUCT_RELATED_PRODUCT_CATEGORY ( 'detail', '', ( #58 ) ) ;
#179 = CALENDAR_DATE ( 2021, 17, 11 ) ;
#180 = FACE_OUTER_BOUND ( 'NONE', #181, .T. ) ;
#181 = EDGE_LOOP ( 'NONE', ( #109 ) ) ;
#182 = EDGE_CURVE ( 'NONE', #191, #191, #73, .T. ) ;
#183 = ORIENTED_EDGE ( 'NONE', *, *, #107, .F. ) ;
#184 = FACE_OUTER_BOUND ( 'NONE', #77, .T. ) ;
#185 = CIRCLE ( 'NONE', #93, 3.000000000000000000 ) ;
#186 = CYLINDRICAL_SURFACE ( 'NONE', #39, 2.499999999999998224 ) ;
#187 = DESIGN_CONTEXT ( 'detailed design', #60, 'design' ) ;
#188 = DIRECTION ( 'NONE',  ( -4.237045877651918877E-31, -1.000000000000000000, -1.192622389734054877E-16 ) ) ;
#189 = ADVANCED_FACE ( 'NONE', ( #174 ), #84, .T. ) ;
#190 = DIRECTION ( 'NONE',  ( 0.0000000000000000000, 1.000000000000000000, 0.0000000000000000000 ) ) ;
#191 = VERTEX_POINT ( 'NONE', #238 ) ;
#192 = CARTESIAN_POINT ( 'NONE',  ( 6.982962677686245017E-16, -2.500000000000000000, 0.1999999999999993727 ) ) ;
#193 = CARTESIAN_POINT ( 'NONE',  ( 5.510913009090917972E-14, 0.0000000000000000000, 15.78388218141501831 ) ) ;
#194 =( NAMED_UNIT ( * ) PLANE_ANGLE_UNIT ( ) SI_UNIT ( $, .RADIAN. ) );
#195 = APPLICATION_CONTEXT ( 'configuration controlled 3d designs of mechanical parts and assemblies' ) ;
#196 = PERSON_AND_ORGANIZATION ( #108, #11 ) ;
#197 = FACE_OUTER_BOUND ( 'NONE', #141, .T. ) ;
#198 = APPROVAL_ROLE ( '' ) ;
#199 = ORIENTED_EDGE ( 'NONE', *, *, #107, .T. ) ;
#200 = PERSON_AND_ORGANIZATION_ROLE ( 'creator' ) ;
#201 = CC_DESIGN_SECURITY_CLASSIFICATION ( #2, ( #230 ) ) ;
#202 = DATE_TIME_ROLE ( 'classification_date' ) ;
#203 = PERSON_AND_ORGANIZATION ( #108, #11 ) ;
#204 = EDGE_CURVE ( 'NONE', #237, #237, #215, .T. ) ;
#205 = PLANE ( 'NONE',  #67 ) ;
#206 = CARTESIAN_POINT ( 'NONE',  ( 4.538925740496073362E-14, 2.249639673992783675E-32, 13.00000000000000000 ) ) ;
#207 = SHAPE_DEFINITION_REPRESENTATION ( #176, #220 ) ;
#208 = CARTESIAN_POINT ( 'NONE',  ( 1.972686956446370535E-13, -6.919254415182546126E-15, 56.50000000000000711 ) ) ;
#209 = ORIENTED_EDGE ( 'NONE', *, *, #243, .F. ) ;
#210 = CIRCLE ( 'NONE', #99, 2.299999999999999378 ) ;
#211 = PLANE ( 'NONE',  #132 ) ;
#212 = DIRECTION ( 'NONE',  ( -4.237045877651918877E-31, -1.000000000000000000, -1.192622389734054877E-16 ) ) ;
#213 = ADVANCED_FACE ( 'NONE', ( #9, #101 ), #116, .T. ) ;
#214 = ORIENTED_EDGE ( 'NONE', *, *, #7, .T. ) ;
#215 = CIRCLE ( 'NONE', #161, 2.499999999999996891 ) ;
#216 = CARTESIAN_POINT ( 'NONE',  ( 0.0000000000000000000, 0.0000000000000000000, 0.0000000000000000000 ) ) ;
#217 = LOCAL_TIME ( 9, 26, 58.00000000000000000, #175 ) ;
#218 = MANIFOLD_SOLID_BREP ( 'Corps-Déplacer/Copier1[1]', #233 ) ;
#219 = DIRECTION ( 'NONE',  ( 1.000000000000000000, 0.0000000000000000000, -3.469446951953618528E-15 ) ) ;
#220 = ADVANCED_BREP_SHAPE_REPRESENTATION ( '955089', ( #218, #50, #226 ), #123 ) ;
#221 = FACE_BOUND ( 'NONE', #56, .T. ) ;
#222 = APPROVAL_ROLE ( '' ) ;
#223 = DIRECTION ( 'NONE',  ( 1.000000000000000000, 0.0000000000000000000, 0.0000000000000000000 ) ) ;
#224 = EDGE_LOOP ( 'NONE', ( #209 ) ) ;
#225 = CC_DESIGN_PERSON_AND_ORGANIZATION_ASSIGNMENT ( #196, #157, ( #230 ) ) ;
#226 = AXIS2_PLACEMENT_3D ( 'NONE', #31, #68, #223 ) ;
#227 = APPROVAL_PERSON_ORGANIZATION ( #89, #87, #125 ) ;
#228 = CALENDAR_DATE ( 2021, 17, 11 ) ;
#229 = EDGE_LOOP ( 'NONE', ( #131 ) ) ;
#230 = PRODUCT_DEFINITION_FORMATION_WITH_SPECIFIED_SOURCE ( 'ANY', '', #58, .NOT_KNOWN. ) ;
#231 = DIRECTION ( 'NONE',  ( 4.275831445896958607E-31, 1.000000000000000000, 1.224646799147353207E-16 ) ) ;
#232 = ORIENTED_EDGE ( 'NONE', *, *, #155, .T. ) ;
#233 = CLOSED_SHELL ( 'NONE', ( #213, #110, #115, #42, #168 ) ) ;
#234 = DIRECTION ( 'NONE',  ( 4.275831445896959482E-31, 1.000000000000000000, 1.224646799147353207E-16 ) ) ;
#235 = DIRECTION ( 'NONE',  ( 3.491481338843133355E-15, -0.0000000000000000000, 1.000000000000000000 ) ) ;
#236 = CIRCLE ( 'NONE', #62, 2.499999999999996891 ) ;
#237 = VERTEX_POINT ( 'NONE', #64 ) ;
#238 = CARTESIAN_POINT ( 'NONE',  ( 1.972686956446370535E-13, 2.999999999999992895, 56.50000000000000711 ) ) ;
#239 = APPROVAL ( #139, 'UNSPECIFIED' ) ;
#240 = PLANE ( 'NONE',  #29 ) ;
#241 = AXIS2_PLACEMENT_3D ( 'NONE', #95, #57, #36 ) ;
#242 = PERSON_AND_ORGANIZATION ( #108, #11 ) ;
#243 = EDGE_CURVE ( 'NONE', #66, #66, #150, .T. ) ;
ENDSEC;
END-ISO-10303-21;
