ISO-10303-21;
HEADER;
FILE_DESCRIPTION (( 'STEP AP203' ),
    '1' );
FILE_NAME ('955089.step',
    '2021-11-17T08:03:34',
    ( '' ),
    ( '' ),
    'SwSTEP 2.0',
    'SolidWorks 2019',
    '' );
FILE_SCHEMA (( 'CONFIG_CONTROL_DESIGN' ));
ENDSEC;

DATA;
#1 = FACE_OUTER_BOUND ( 'NONE', #236, .T. ) ;
#2 = DIRECTION ( 'NONE',  ( 1.000000000000000000, 0.0000000000000000000, 0.0000000000000000000 ) ) ;
#3 = EDGE_CURVE ( 'NONE', #182, #182, #22, .T. ) ;
#4 = AXIS2_PLACEMENT_3D ( 'NONE', #82, #88, #213 ) ;
#5 = DATE_AND_TIME ( #23, #149 ) ;
#6 = COORDINATED_UNIVERSAL_TIME_OFFSET ( 1, 0, .AHEAD. ) ;
#7 = AXIS2_PLACEMENT_3D ( 'NONE', #28, #121, #9 ) ;
#8 = SECURITY_CLASSIFICATION_LEVEL ( 'unclassified' ) ;
#9 = DIRECTION ( 'NONE',  ( 0.0000000000000000000, 1.000000000000000000, 0.0000000000000000000 ) ) ;
#10 = AXIS2_PLACEMENT_3D ( 'NONE', #206, #96, #34 ) ;
#11 = ORIENTED_EDGE ( 'NONE', *, *, #200, .F. ) ;
#12 = APPLICATION_CONTEXT ( 'configuration controlled 3d designs of mechanical parts and assemblies' ) ;
#13 = FACE_OUTER_BOUND ( 'NONE', #90, .T. ) ;
#14 = DIRECTION ( 'NONE',  ( 3.491481338843133355E-15, -1.217917285207545432E-16, 1.000000000000000000 ) ) ;
#15 = AXIS2_PLACEMENT_3D ( 'NONE', #125, #101, #49 ) ;
#16 = VERTEX_POINT ( 'NONE', #186 ) ;
#17 = FACE_OUTER_BOUND ( 'NONE', #228, .T. ) ;
#18 = AXIS2_PLACEMENT_3D ( 'NONE', #55, #128, #2 ) ;
#19 = DIRECTION ( 'NONE',  ( 3.491481338843133355E-15, -1.217917285207545432E-16, 1.000000000000000000 ) ) ;
#20 = CC_DESIGN_PERSON_AND_ORGANIZATION_ASSIGNMENT ( #231, #227, ( #242 ) ) ;
#21 = TOROIDAL_SURFACE ( 'NONE', #29, 10.49999999999999822, 8.000000000000001776 ) ;
#22 = CIRCLE ( 'NONE', #15, 3.000000000000000000 ) ;
#23 = CALENDAR_DATE ( 2021, 17, 11 ) ;
#24 = APPROVAL_STATUS ( 'not_yet_approved' ) ;
#25 = APPROVAL_STATUS ( 'not_yet_approved' ) ;
#26 = LOCAL_TIME ( 9, 3, 34.00000000000000000, #44 ) ;
#27 = PLANE ( 'NONE',  #179 ) ;
#28 = CARTESIAN_POINT ( 'NONE',  ( 1.972686956446370535E-13, -6.919254415182546126E-15, 56.50000000000000711 ) ) ;
#29 = AXIS2_PLACEMENT_3D ( 'NONE', #86, #216, #147 ) ;
#30 = CARTESIAN_POINT ( 'NONE',  ( 1.972686956446370535E-13, -6.919254415182546126E-15, 56.50000000000000711 ) ) ;
#31 = DIRECTION ( 'NONE',  ( 4.275831445896958607E-31, 1.000000000000000000, 1.224646799147353207E-16 ) ) ;
#32 = DIRECTION ( 'NONE',  ( 0.0000000000000000000, 1.000000000000000000, 0.0000000000000000000 ) ) ;
#33 = AXIS2_PLACEMENT_3D ( 'NONE', #154, #56, #94 ) ;
#34 = DIRECTION ( 'NONE',  ( -4.252335473556634944E-31, -1.000000000000000000, -1.217917285207545432E-16 ) ) ;
#35 = CARTESIAN_POINT ( 'NONE',  ( 4.538925740496072731E-14, 0.0000000000000000000, 12.99999999999999822 ) ) ;
#36 = CARTESIAN_POINT ( 'NONE',  ( 0.0000000000000000000, 0.0000000000000000000, 0.0000000000000000000 ) ) ;
#37 = APPLICATION_CONTEXT ( 'configuration controlled 3d designs of mechanical parts and assemblies' ) ;
#38 = CC_DESIGN_APPROVAL ( #79, ( #242 ) ) ;
#39 = COORDINATED_UNIVERSAL_TIME_OFFSET ( 1, 0, .AHEAD. ) ;
#40 = PERSON_AND_ORGANIZATION ( #215, #217 ) ;
#41 = CC_DESIGN_PERSON_AND_ORGANIZATION_ASSIGNMENT ( #40, #232, ( #137 ) ) ;
#42 = CLOSED_SHELL ( 'NONE', ( #184, #163, #170, #136 ) ) ;
#43 = PERSON_AND_ORGANIZATION ( #215, #217 ) ;
#44 = COORDINATED_UNIVERSAL_TIME_OFFSET ( 1, 0, .AHEAD. ) ;
#45 = PRODUCT_DEFINITION_SHAPE ( 'NONE', 'NONE',  #242 ) ;
#46 = DATE_AND_TIME ( #138, #26 ) ;
#47 = APPROVAL_PERSON_ORGANIZATION ( #61, #176, #63 ) ;
#48 = FACE_OUTER_BOUND ( 'NONE', #145, .T. ) ;
#49 = DIRECTION ( 'NONE',  ( -1.000000000000000000, 0.0000000000000000000, 3.469446951953614189E-15 ) ) ;
#50 = EDGE_LOOP ( 'NONE', ( #178 ) ) ;
#51 = FACE_OUTER_BOUND ( 'NONE', #119, .T. ) ;
#52 = FACE_BOUND ( 'NONE', #143, .T. ) ;
#53 = FACE_OUTER_BOUND ( 'NONE', #197, .T. ) ;
#54 = CIRCLE ( 'NONE', #108, 2.500000000000000000 ) ;
#55 = CARTESIAN_POINT ( 'NONE',  ( 0.0000000000000000000, 0.0000000000000000000, 0.0000000000000000000 ) ) ;
#56 = DIRECTION ( 'NONE',  ( 3.491481338843133355E-15, -1.224646799147353207E-16, 1.000000000000000000 ) ) ;
#57 = EDGE_CURVE ( 'NONE', #112, #112, #97, .T. ) ;
#58 = CARTESIAN_POINT ( 'NONE',  ( -2.999999999999944933, 0.0000000000000000000, 15.78388218141502719 ) ) ;
#59 = PRODUCT_DEFINITION_FORMATION_WITH_SPECIFIED_SOURCE ( 'ANY', '', #137, .NOT_KNOWN. ) ;
#60 = DIRECTION ( 'NONE',  ( 1.000000000000000000, 0.0000000000000000000, -3.491481338843133355E-15 ) ) ;
#61 = PERSON_AND_ORGANIZATION ( #215, #217 ) ;
#62 = ORIENTED_EDGE ( 'NONE', *, *, #203, .T. ) ;
#63 = APPROVAL_ROLE ( '' ) ;
#64 = ADVANCED_FACE ( 'NONE', ( #198, #174 ), #144, .T. ) ;
#65 = PERSON_AND_ORGANIZATION ( #215, #217 ) ;
#66 = FACE_OUTER_BOUND ( 'NONE', #150, .T. ) ;
#67 = CARTESIAN_POINT ( 'NONE',  ( 4.538925740496073362E-14, 2.249639673992783675E-32, 13.00000000000000000 ) ) ;
#68 = PRODUCT_RELATED_PRODUCT_CATEGORY ( 'detail', '', ( #137 ) ) ;
#69 = DIRECTION ( 'NONE',  ( -4.237045877651918877E-31, -1.000000000000000000, -1.192622389734054877E-16 ) ) ;
#70 = DIRECTION ( 'NONE',  ( -3.491481338843133355E-15, 1.224646799147353207E-16, -1.000000000000000000 ) ) ;
#71 = DIRECTION ( 'NONE',  ( -3.491481338843133355E-15, 1.224646799147353207E-16, -1.000000000000000000 ) ) ;
#72 = VERTEX_POINT ( 'NONE', #153 ) ;
#73 = AXIS2_PLACEMENT_3D ( 'NONE', #109, #111, #226 ) ;
#74 = CC_DESIGN_APPROVAL ( #93, ( #225 ) ) ;
#75 = VERTEX_POINT ( 'NONE', #169 ) ;
#76 = DIRECTION ( 'NONE',  ( 4.275831445896959482E-31, 1.000000000000000000, 1.224646799147353207E-16 ) ) ;
#77 = APPROVAL_PERSON_ORGANIZATION ( #190, #93, #113 ) ;
#78 = PERSON_AND_ORGANIZATION_ROLE ( 'creator' ) ;
#79 = APPROVAL ( #25, 'UNSPECIFIED' ) ;
#80 = DESIGN_CONTEXT ( 'detailed design', #37, 'design' ) ;
#81 = DATE_AND_TIME ( #114, #148 ) ;
#82 = CARTESIAN_POINT ( 'NONE',  ( 4.538925740496072731E-14, 0.0000000000000000000, 12.99999999999999822 ) ) ;
#83 = UNCERTAINTY_MEASURE_WITH_UNIT (LENGTH_MEASURE( 1.000000000000000082E-05 ), #152, 'distance_accuracy_value', 'NONE');
#84 = ADVANCED_FACE ( 'NONE', ( #218, #13 ), #21, .F. ) ;
#85 = AXIS2_PLACEMENT_3D ( 'NONE', #220, #19, #168 ) ;
#86 = CARTESIAN_POINT ( 'NONE',  ( 4.538925740496073362E-14, 0.0000000000000000000, 13.00000000000000000 ) ) ;
#87 = ADVANCED_BREP_SHAPE_REPRESENTATION ( '955089', ( #141, #139, #18 ), #95 ) ;
#88 = DIRECTION ( 'NONE',  ( 3.491481338843133355E-15, -0.0000000000000000000, 1.000000000000000000 ) ) ;
#89 = FACE_OUTER_BOUND ( 'NONE', #134, .T. ) ;
#90 = EDGE_LOOP ( 'NONE', ( #146 ) ) ;
#91 = CC_DESIGN_APPROVAL ( #176, ( #59 ) ) ;
#92 = CC_DESIGN_DATE_AND_TIME_ASSIGNMENT ( #46, #229, ( #242 ) ) ;
#93 = APPROVAL ( #24, 'UNSPECIFIED' ) ;
#94 = DIRECTION ( 'NONE',  ( -4.275831445896958607E-31, -1.000000000000000000, -1.224646799147353207E-16 ) ) ;
#95 =( GEOMETRIC_REPRESENTATION_CONTEXT ( 3 ) GLOBAL_UNCERTAINTY_ASSIGNED_CONTEXT ( ( #83 ) ) GLOBAL_UNIT_ASSIGNED_CONTEXT ( ( #152, #223, #130 ) ) REPRESENTATION_CONTEXT ( 'NONE', 'WORKASPACE' ) );
#96 = DIRECTION ( 'NONE',  ( 3.491481338843133355E-15, -1.217917285207545432E-16, 1.000000000000000000 ) ) ;
#97 = CIRCLE ( 'NONE', #239, 2.999999999999999556 ) ;
#98 = APPROVAL_DATE_TIME ( #5, #93 ) ;
#99 = CC_DESIGN_PERSON_AND_ORGANIZATION_ASSIGNMENT ( #43, #172, ( #59 ) ) ;
#100 = PERSON_AND_ORGANIZATION ( #215, #217 ) ;
#101 = DIRECTION ( 'NONE',  ( 3.491481338843133355E-15, -0.0000000000000000000, 1.000000000000000000 ) ) ;
#102 = CIRCLE ( 'NONE', #73, 2.499999999999999556 ) ;
#103 = DIRECTION ( 'NONE',  ( -3.491481338843133355E-15, 1.224646799147353207E-16, -1.000000000000000000 ) ) ;
#104 = ORIENTED_EDGE ( 'NONE', *, *, #203, .F. ) ;
#105 = DIRECTION ( 'NONE',  ( -3.491481338843133355E-15, 1.224646799147353207E-16, -1.000000000000000000 ) ) ;
#106 = EDGE_CURVE ( 'NONE', #16, #16, #160, .T. ) ;
#107 = FACE_OUTER_BOUND ( 'NONE', #50, .T. ) ;
#108 = AXIS2_PLACEMENT_3D ( 'NONE', #162, #14, #69 ) ;
#109 = CARTESIAN_POINT ( 'NONE',  ( 1.990144363140586139E-13, -6.980486755139912911E-15, 57.00000000000000000 ) ) ;
#110 = CC_DESIGN_DATE_AND_TIME_ASSIGNMENT ( #192, #158, ( #225 ) ) ;
#111 = DIRECTION ( 'NONE',  ( -3.491481338843133355E-15, 1.224646799147353207E-16, -1.000000000000000000 ) ) ;
#112 = VERTEX_POINT ( 'NONE', #129 ) ;
#113 = APPROVAL_ROLE ( '' ) ;
#114 = CALENDAR_DATE ( 2021, 17, 11 ) ;
#115 = PERSON_AND_ORGANIZATION_ROLE ( 'classification_officer' ) ;
#116 = MECHANICAL_CONTEXT ( 'NONE', #12, 'mechanical' ) ;
#117 = APPROVAL_STATUS ( 'not_yet_approved' ) ;
#118 = LOCAL_TIME ( 9, 3, 34.00000000000000000, #39 ) ;
#119 = EDGE_LOOP ( 'NONE', ( #104 ) ) ;
#120 = CARTESIAN_POINT ( 'NONE',  ( 1.990144363140586139E-13, 1.874699728327311336E-32, 57.00000000000000000 ) ) ;
#121 = DIRECTION ( 'NONE',  ( -3.491481338843133355E-15, 1.224646799147353207E-16, -1.000000000000000000 ) ) ;
#122 = PLANE ( 'NONE',  #166 ) ;
#123 = ADVANCED_FACE ( 'NONE', ( #48 ), #159, .F. ) ;
#124 = ORIENTED_EDGE ( 'NONE', *, *, #238, .F. ) ;
#125 = CARTESIAN_POINT ( 'NONE',  ( 5.510913009090917972E-14, 0.0000000000000000000, 15.78388218141501831 ) ) ;
#126 = CARTESIAN_POINT ( 'NONE',  ( -6.413747168845438786E-31, 0.0000000000000000000, -1.836970198721029934E-16 ) ) ;
#127 = EDGE_CURVE ( 'NONE', #241, #241, #54, .T. ) ;
#128 = DIRECTION ( 'NONE',  ( 0.0000000000000000000, 0.0000000000000000000, 1.000000000000000000 ) ) ;
#129 = CARTESIAN_POINT ( 'NONE',  ( 1.972686956446370535E-13, 2.999999999999992895, 56.50000000000000711 ) ) ;
#130 =( NAMED_UNIT ( * ) SI_UNIT ( $, .STERADIAN. ) SOLID_ANGLE_UNIT ( ) );
#131 = APPROVAL_PERSON_ORGANIZATION ( #65, #79, #135 ) ;
#132 = DIRECTION ( 'NONE',  ( 3.491481338843133355E-15, -0.0000000000000000000, 1.000000000000000000 ) ) ;
#133 = COORDINATED_UNIVERSAL_TIME_OFFSET ( 1, 0, .AHEAD. ) ;
#134 = EDGE_LOOP ( 'NONE', ( #177 ) ) ;
#135 = APPROVAL_ROLE ( '' ) ;
#136 = ADVANCED_FACE ( 'NONE', ( #51 ), #27, .T. ) ;
#137 = PRODUCT ( '955089', '955089', '', ( #116 ) ) ;
#138 = CALENDAR_DATE ( 2021, 17, 11 ) ;
#139 = MANIFOLD_SOLID_BREP ( 'Corps-Déplacer/Copier1[2]', #42 ) ;
#140 = COORDINATED_UNIVERSAL_TIME_OFFSET ( 1, 0, .AHEAD. ) ;
#141 = MANIFOLD_SOLID_BREP ( 'Corps-Déplacer/Copier1[1]', #201 ) ;
#142 = CALENDAR_DATE ( 2021, 17, 11 ) ;
#143 = EDGE_LOOP ( 'NONE', ( #62 ) ) ;
#144 = CONICAL_SURFACE ( 'NONE', #7, 2.999999999999999556, 0.7853981633974548293 ) ;
#145 = EDGE_LOOP ( 'NONE', ( #124 ) ) ;
#146 = ORIENTED_EDGE ( 'NONE', *, *, #106, .T. ) ;
#147 = DIRECTION ( 'NONE',  ( 1.000000000000000000, 0.0000000000000000000, -3.491481338843133355E-15 ) ) ;
#148 = LOCAL_TIME ( 9, 3, 34.00000000000000000, #6 ) ;
#149 = LOCAL_TIME ( 9, 3, 34.00000000000000000, #140 ) ;
#150 = EDGE_LOOP ( 'NONE', ( #233 ) ) ;
#151 = DIRECTION ( 'NONE',  ( 4.275831445896958607E-31, 1.000000000000000000, 1.224646799147353207E-16 ) ) ;
#152 =( LENGTH_UNIT ( ) NAMED_UNIT ( * ) SI_UNIT ( .MILLI., .METRE. ) );
#153 = CARTESIAN_POINT ( 'NONE',  ( 1.990144363140586139E-13, 2.499999999999992895, 57.00000000000000000 ) ) ;
#154 = CARTESIAN_POINT ( 'NONE',  ( 4.538925740496073362E-14, 2.249639673992783675E-32, 13.00000000000000000 ) ) ;
#155 = CYLINDRICAL_SURFACE ( 'NONE', #188, 2.499999999999998224 ) ;
#156 = APPROVAL_DATE_TIME ( #208, #176 ) ;
#157 = CC_DESIGN_PERSON_AND_ORGANIZATION_ASSIGNMENT ( #191, #115, ( #225 ) ) ;
#158 = DATE_TIME_ROLE ( 'classification_date' ) ;
#159 = PLANE ( 'NONE',  #171 ) ;
#160 = CIRCLE ( 'NONE', #4, 2.499999999999996891 ) ;
#161 = ORIENTED_EDGE ( 'NONE', *, *, #3, .T. ) ;
#162 = CARTESIAN_POINT ( 'NONE',  ( 6.982962677686255864E-16, -2.435834570415086921E-17, 0.1999999999999996780 ) ) ;
#163 = ADVANCED_FACE ( 'NONE', ( #89 ), #122, .T. ) ;
#164 = DIRECTION ( 'NONE',  ( 3.491481338843133355E-15, -1.224646799147353207E-16, 1.000000000000000000 ) ) ;
#165 = ORIENTED_EDGE ( 'NONE', *, *, #106, .F. ) ;
#166 = AXIS2_PLACEMENT_3D ( 'NONE', #67, #164, #219 ) ;
#167 = CYLINDRICAL_SURFACE ( 'NONE', #175, 3.000000000000000000 ) ;
#168 = DIRECTION ( 'NONE',  ( -4.237045877651918877E-31, -1.000000000000000000, -1.192622389734054877E-16 ) ) ;
#169 = CARTESIAN_POINT ( 'NONE',  ( 2.500000000000042633, 0.0000000000000000000, 12.99999999999998934 ) ) ;
#170 = ADVANCED_FACE ( 'NONE', ( #52, #66 ), #234, .T. ) ;
#171 = AXIS2_PLACEMENT_3D ( 'NONE', #120, #105, #31 ) ;
#172 = PERSON_AND_ORGANIZATION_ROLE ( 'design_supplier' ) ;
#173 = ORIENTED_EDGE ( 'NONE', *, *, #3, .F. ) ;
#174 = FACE_OUTER_BOUND ( 'NONE', #194, .T. ) ;
#175 = AXIS2_PLACEMENT_3D ( 'NONE', #36, #71, #76 ) ;
#176 = APPROVAL ( #117, 'UNSPECIFIED' ) ;
#177 = ORIENTED_EDGE ( 'NONE', *, *, #200, .T. ) ;
#178 = ORIENTED_EDGE ( 'NONE', *, *, #57, .T. ) ;
#179 = AXIS2_PLACEMENT_3D ( 'NONE', #240, #70, #151 ) ;
#180 = CC_DESIGN_SECURITY_CLASSIFICATION ( #225, ( #59 ) ) ;
#181 = CARTESIAN_POINT ( 'NONE',  ( 6.982962677686245017E-16, -2.500000000000000000, 0.1999999999999993727 ) ) ;
#182 = VERTEX_POINT ( 'NONE', #58 ) ;
#183 = FACE_OUTER_BOUND ( 'NONE', #214, .T. ) ;
#184 = ADVANCED_FACE ( 'NONE', ( #183, #17 ), #155, .T. ) ;
#185 = APPLICATION_PROTOCOL_DEFINITION ( 'international standard', 'config_control_design', 1994, #12 ) ;
#186 = CARTESIAN_POINT ( 'NONE',  ( 2.500000000000042633, 0.0000000000000000000, 12.99999999999998934 ) ) ;
#187 = CALENDAR_DATE ( 2021, 17, 11 ) ;
#188 = AXIS2_PLACEMENT_3D ( 'NONE', #126, #207, #60 ) ;
#189 = ORIENTED_EDGE ( 'NONE', *, *, #57, .F. ) ;
#190 = PERSON_AND_ORGANIZATION ( #215, #217 ) ;
#191 = PERSON_AND_ORGANIZATION ( #215, #217 ) ;
#192 = DATE_AND_TIME ( #187, #118 ) ;
#193 = LOCAL_TIME ( 9, 3, 34.00000000000000000, #133 ) ;
#194 = EDGE_LOOP ( 'NONE', ( #189 ) ) ;
#195 = CC_DESIGN_PERSON_AND_ORGANIZATION_ASSIGNMENT ( #100, #78, ( #59 ) ) ;
#196 = EDGE_LOOP ( 'NONE', ( #173 ) ) ;
#197 = EDGE_LOOP ( 'NONE', ( #161 ) ) ;
#198 = FACE_BOUND ( 'NONE', #237, .T. ) ;
#199 = ORIENTED_EDGE ( 'NONE', *, *, #127, .T. ) ;
#200 = EDGE_CURVE ( 'NONE', #75, #75, #205, .T. ) ;
#201 = CLOSED_SHELL ( 'NONE', ( #230, #64, #123, #84, #222 ) ) ;
#202 = DIRECTION ( 'NONE',  ( 1.000000000000000000, 0.0000000000000000000, -3.469446951953618528E-15 ) ) ;
#203 = EDGE_CURVE ( 'NONE', #204, #204, #210, .T. ) ;
#204 = VERTEX_POINT ( 'NONE', #224 ) ;
#205 = CIRCLE ( 'NONE', #221, 2.499999999999996891 ) ;
#206 = CARTESIAN_POINT ( 'NONE',  ( -9.780371589180257743E-31, 3.411641781296829419E-32, -2.801209755977353656E-16 ) ) ;
#207 = DIRECTION ( 'NONE',  ( 3.491481338843133355E-15, -0.0000000000000000000, 1.000000000000000000 ) ) ;
#208 = DATE_AND_TIME ( #142, #193 ) ;
#209 = APPLICATION_PROTOCOL_DEFINITION ( 'international standard', 'config_control_design', 1994, #37 ) ;
#210 = CIRCLE ( 'NONE', #10, 2.299999999999999378 ) ;
#211 = APPROVAL_DATE_TIME ( #81, #79 ) ;
#212 = SHAPE_DEFINITION_REPRESENTATION ( #45, #87 ) ;
#213 = DIRECTION ( 'NONE',  ( 1.000000000000000000, 0.0000000000000000000, -3.469446951953618528E-15 ) ) ;
#214 = EDGE_LOOP ( 'NONE', ( #11 ) ) ;
#215 = PERSON ( 'UNSPECIFIED', 'UNSPECIFIED', 'UNSPECIFIED', ('UNSPECIFIED'), ('UNSPECIFIED'), ('UNSPECIFIED') ) ;
#216 = DIRECTION ( 'NONE',  ( 3.491481338843133355E-15, -0.0000000000000000000, 1.000000000000000000 ) ) ;
#217 = ORGANIZATION ( 'UNSPECIFIED', 'UNSPECIFIED', '' ) ;
#218 = FACE_OUTER_BOUND ( 'NONE', #196, .T. ) ;
#219 = DIRECTION ( 'NONE',  ( -4.275831445896958607E-31, -1.000000000000000000, -1.224646799147353207E-16 ) ) ;
#220 = CARTESIAN_POINT ( 'NONE',  ( 6.982962677686255864E-16, -2.435834570415086921E-17, 0.1999999999999996780 ) ) ;
#221 = AXIS2_PLACEMENT_3D ( 'NONE', #35, #132, #202 ) ;
#222 = ADVANCED_FACE ( 'NONE', ( #1 ), #243, .F. ) ;
#223 =( NAMED_UNIT ( * ) PLANE_ANGLE_UNIT ( ) SI_UNIT ( $, .RADIAN. ) );
#224 = CARTESIAN_POINT ( 'NONE',  ( -1.956074317836051549E-30, -2.299999999999999378, -5.602419511954707313E-16 ) ) ;
#225 = SECURITY_CLASSIFICATION ( '', '', #8 ) ;
#226 = DIRECTION ( 'NONE',  ( 0.0000000000000000000, 1.000000000000000000, 0.0000000000000000000 ) ) ;
#227 = PERSON_AND_ORGANIZATION_ROLE ( 'creator' ) ;
#228 = EDGE_LOOP ( 'NONE', ( #199 ) ) ;
#229 = DATE_TIME_ROLE ( 'creation_date' ) ;
#230 = ADVANCED_FACE ( 'NONE', ( #107, #53 ), #167, .T. ) ;
#231 = PERSON_AND_ORGANIZATION ( #215, #217 ) ;
#232 = PERSON_AND_ORGANIZATION_ROLE ( 'design_owner' ) ;
#233 = ORIENTED_EDGE ( 'NONE', *, *, #127, .F. ) ;
#234 = CONICAL_SURFACE ( 'NONE', #85, 2.500000000000000000, 0.7853981633974497223 ) ;
#235 = ORIENTED_EDGE ( 'NONE', *, *, #238, .T. ) ;
#236 = EDGE_LOOP ( 'NONE', ( #165 ) ) ;
#237 = EDGE_LOOP ( 'NONE', ( #235 ) ) ;
#238 = EDGE_CURVE ( 'NONE', #72, #72, #102, .T. ) ;
#239 = AXIS2_PLACEMENT_3D ( 'NONE', #30, #103, #32 ) ;
#240 = CARTESIAN_POINT ( 'NONE',  ( -6.413747168845438786E-31, 2.249639673992786412E-32, -1.836970198721029934E-16 ) ) ;
#241 = VERTEX_POINT ( 'NONE', #181 ) ;
#242 = PRODUCT_DEFINITION ( 'UNKNOWN', '', #59, #80 ) ;
#243 = PLANE ( 'NONE',  #33 ) ;
ENDSEC;
END-ISO-10303-21;
