ISO-10303-21;
HEADER;
FILE_DESCRIPTION (( 'STEP AP203' ),
    '1' );
FILE_NAME ('955088.step',
    '2021-11-17T08:03:33',
    ( '' ),
    ( '' ),
    'SwSTEP 2.0',
    'SolidWorks 2019',
    '' );
FILE_SCHEMA (( 'CONFIG_CONTROL_DESIGN' ));
ENDSEC;

DATA;
#1 = AXIS2_PLACEMENT_3D ( 'NONE', #216, #121, #197 ) ;
#2 = VERTEX_POINT ( 'NONE', #56 ) ;
#3 = ORGANIZATION ( 'UNSPECIFIED', 'UNSPECIFIED', '' ) ;
#4 = DATE_TIME_ROLE ( 'creation_date' ) ;
#5 = PERSON_AND_ORGANIZATION ( #183, #3 ) ;
#6 = PERSON_AND_ORGANIZATION ( #183, #3 ) ;
#7 = CALENDAR_DATE ( 2021, 17, 11 ) ;
#8 = CARTESIAN_POINT ( 'NONE',  ( 4.538925740496073362E-14, 2.999519565323712479E-32, 13.00000000000000000 ) ) ;
#9 = AXIS2_PLACEMENT_3D ( 'NONE', #8, #181, #214 ) ;
#10 = DIRECTION ( 'NONE',  ( 1.000000000000000000, 0.0000000000000000000, -3.491481338843133355E-15 ) ) ;
#11 = ORIENTED_EDGE ( 'NONE', *, *, #134, .T. ) ;
#12 = EDGE_LOOP ( 'NONE', ( #83 ) ) ;
#13 = EDGE_LOOP ( 'NONE', ( #22 ) ) ;
#14 = DIRECTION ( 'NONE',  ( -4.275831445896958607E-31, -1.000000000000000000, -1.224646799147353207E-16 ) ) ;
#15 = CIRCLE ( 'NONE', #190, 2.999999999999999112 ) ;
#16 = DIRECTION ( 'NONE',  ( 3.491481338843133355E-15, -0.0000000000000000000, 1.000000000000000000 ) ) ;
#17 = DIRECTION ( 'NONE',  ( 1.000000000000000000, 0.0000000000000000000, -3.469446951953615372E-15 ) ) ;
#18 = PERSON_AND_ORGANIZATION ( #183, #3 ) ;
#19 = EDGE_CURVE ( 'NONE', #239, #239, #85, .T. ) ;
#20 = DIRECTION ( 'NONE',  ( 1.000000000000000000, 0.0000000000000000000, 0.0000000000000000000 ) ) ;
#21 = DATE_AND_TIME ( #175, #184 ) ;
#22 = ORIENTED_EDGE ( 'NONE', *, *, #134, .F. ) ;
#23 = EDGE_LOOP ( 'NONE', ( #164 ) ) ;
#24 = CARTESIAN_POINT ( 'NONE',  ( 6.982962677686253892E-16, -2.435834570415086304E-17, 0.1999999999999996225 ) ) ;
#25 = EDGE_LOOP ( 'NONE', ( #161 ) ) ;
#26 = CC_DESIGN_DATE_AND_TIME_ASSIGNMENT ( #96, #40, ( #73 ) ) ;
#27 = DIRECTION ( 'NONE',  ( -4.172848212839010723E-31, -1.000000000000000000, -1.174552353525963055E-16 ) ) ;
#28 = DIRECTION ( 'NONE',  ( 3.491481338843133355E-15, -0.0000000000000000000, 1.000000000000000000 ) ) ;
#29 = CARTESIAN_POINT ( 'NONE',  ( 4.538925740496073362E-14, 2.999519565323712479E-32, 13.00000000000000000 ) ) ;
#30 = PRODUCT_DEFINITION_FORMATION_WITH_SPECIFIED_SOURCE ( 'ANY', '', #138, .NOT_KNOWN. ) ;
#31 = FACE_OUTER_BOUND ( 'NONE', #23, .T. ) ;
#32 = VERTEX_POINT ( 'NONE', #208 ) ;
#33 = CIRCLE ( 'NONE', #68, 2.799999999999999378 ) ;
#34 = UNCERTAINTY_MEASURE_WITH_UNIT (LENGTH_MEASURE( 1.000000000000000082E-05 ), #243, 'distance_accuracy_value', 'NONE');
#35 = DIRECTION ( 'NONE',  ( 0.0000000000000000000, 0.0000000000000000000, 1.000000000000000000 ) ) ;
#36 = CC_DESIGN_PERSON_AND_ORGANIZATION_ASSIGNMENT ( #94, #132, ( #206 ) ) ;
#37 = CALENDAR_DATE ( 2021, 17, 11 ) ;
#38 = APPROVAL_STATUS ( 'not_yet_approved' ) ;
#39 = APPROVAL_DATE_TIME ( #79, #129 ) ;
#40 = DATE_TIME_ROLE ( 'classification_date' ) ;
#41 = MANIFOLD_SOLID_BREP ( 'Corps-Déplacer/Copier1[2]', #60 ) ;
#42 = CC_DESIGN_APPROVAL ( #242, ( #30 ) ) ;
#43 = EDGE_LOOP ( 'NONE', ( #11 ) ) ;
#44 = CC_DESIGN_SECURITY_CLASSIFICATION ( #73, ( #30 ) ) ;
#45 = PLANE ( 'NONE',  #1 ) ;
#46 = AXIS2_PLACEMENT_3D ( 'NONE', #123, #122, #199 ) ;
#47 = CYLINDRICAL_SURFACE ( 'NONE', #46, 4.000000000000000000 ) ;
#48 = APPROVAL ( #57, 'UNSPECIFIED' ) ;
#49 = ORIENTED_EDGE ( 'NONE', *, *, #198, .F. ) ;
#50 = CARTESIAN_POINT ( 'NONE',  ( 5.891170648389417753E-14, 0.0000000000000000000, 16.87298334620742324 ) ) ;
#51 = AXIS2_PLACEMENT_3D ( 'NONE', #233, #220, #10 ) ;
#52 = FACE_BOUND ( 'NONE', #86, .T. ) ;
#53 = DIRECTION ( 'NONE',  ( 3.491481338843133355E-15, -1.217917285207545432E-16, 1.000000000000000000 ) ) ;
#54 = AXIS2_PLACEMENT_3D ( 'NONE', #71, #35, #20 ) ;
#55 = VERTEX_POINT ( 'NONE', #225 ) ;
#56 = CARTESIAN_POINT ( 'NONE',  ( -2.381307865191715218E-30, -2.799999999999999378, -6.820336797162253238E-16 ) ) ;
#57 = APPROVAL_STATUS ( 'not_yet_approved' ) ;
#58 = AXIS2_PLACEMENT_3D ( 'NONE', #187, #28, #165 ) ;
#59 = PERSON_AND_ORGANIZATION_ROLE ( 'design_supplier' ) ;
#60 = CLOSED_SHELL ( 'NONE', ( #101, #177, #81, #112 ) ) ;
#61 = ORIENTED_EDGE ( 'NONE', *, *, #118, .F. ) ;
#62 = APPROVAL_PERSON_ORGANIZATION ( #229, #242, #119 ) ;
#63 = DIRECTION ( 'NONE',  ( -1.000000000000000000, 0.0000000000000000000, 3.469446951953614189E-15 ) ) ;
#64 = EDGE_LOOP ( 'NONE', ( #103 ) ) ;
#65 = EDGE_LOOP ( 'NONE', ( #158 ) ) ;
#66 = EDGE_LOOP ( 'NONE', ( #236 ) ) ;
#67 = PLANE ( 'NONE',  #136 ) ;
#68 = AXIS2_PLACEMENT_3D ( 'NONE', #124, #238, #110 ) ;
#69 = FACE_OUTER_BOUND ( 'NONE', #194, .T. ) ;
#70 = CC_DESIGN_PERSON_AND_ORGANIZATION_ASSIGNMENT ( #228, #59, ( #30 ) ) ;
#71 = CARTESIAN_POINT ( 'NONE',  ( 0.0000000000000000000, 0.0000000000000000000, 0.0000000000000000000 ) ) ;
#72 = APPLICATION_CONTEXT ( 'configuration controlled 3d designs of mechanical parts and assemblies' ) ;
#73 = SECURITY_CLASSIFICATION ( '', '', #191 ) ;
#74 = APPROVAL_DATE_TIME ( #173, #242 ) ;
#75 = MECHANICAL_CONTEXT ( 'NONE', #139, 'mechanical' ) ;
#76 = CALENDAR_DATE ( 2021, 17, 11 ) ;
#77 = ADVANCED_FACE ( 'NONE', ( #176, #142 ), #47, .T. ) ;
#78 = DIRECTION ( 'NONE',  ( 0.0000000000000000000, 1.000000000000000000, 0.0000000000000000000 ) ) ;
#79 = DATE_AND_TIME ( #7, #93 ) ;
#80 = DIRECTION ( 'NONE',  ( 3.491481338843133355E-15, -0.0000000000000000000, 1.000000000000000000 ) ) ;
#81 = ADVANCED_FACE ( 'NONE', ( #163, #159 ), #201, .T. ) ;
#82 = CC_DESIGN_APPROVAL ( #48, ( #206 ) ) ;
#83 = ORIENTED_EDGE ( 'NONE', *, *, #155, .F. ) ;
#84 = EDGE_LOOP ( 'NONE', ( #235 ) ) ;
#85 = CIRCLE ( 'NONE', #152, 3.999999999999999112 ) ;
#86 = EDGE_LOOP ( 'NONE', ( #179 ) ) ;
#87 = DIRECTION ( 'NONE',  ( -3.491481338843133355E-15, 1.224646799147353207E-16, -1.000000000000000000 ) ) ;
#88 = CIRCLE ( 'NONE', #171, 3.500000000000000000 ) ;
#89 = CARTESIAN_POINT ( 'NONE',  ( 2.199633243471174140E-13, 2.624579619658239319E-32, 63.00000000000000000 ) ) ;
#90 = CIRCLE ( 'NONE', #111, 2.999999999999999112 ) ;
#91 = PLANE ( 'NONE',  #192 ) ;
#92 = ADVANCED_FACE ( 'NONE', ( #237 ), #104, .F. ) ;
#93 = LOCAL_TIME ( 9, 3, 33.00000000000000000, #213 ) ;
#94 = PERSON_AND_ORGANIZATION ( #183, #3 ) ;
#95 = COORDINATED_UNIVERSAL_TIME_OFFSET ( 1, 0, .AHEAD. ) ;
#96 = DATE_AND_TIME ( #76, #215 ) ;
#97 = COORDINATED_UNIVERSAL_TIME_OFFSET ( 1, 0, .AHEAD. ) ;
#98 = COORDINATED_UNIVERSAL_TIME_OFFSET ( 1, 0, .AHEAD. ) ;
#99 = ORIENTED_EDGE ( 'NONE', *, *, #107, .F. ) ;
#100 = CYLINDRICAL_SURFACE ( 'NONE', #51, 2.999999999999999556 ) ;
#101 = ADVANCED_FACE ( 'NONE', ( #195, #178 ), #100, .T. ) ;
#102 = DIRECTION ( 'NONE',  ( -3.491481338843133355E-15, 1.224646799147353207E-16, -1.000000000000000000 ) ) ;
#103 = ORIENTED_EDGE ( 'NONE', *, *, #180, .F. ) ;
#104 = PLANE ( 'NONE',  #9 ) ;
#105 = AXIS2_PLACEMENT_3D ( 'NONE', #219, #200, #27 ) ;
#106 = ADVANCED_BREP_SHAPE_REPRESENTATION ( '955088', ( #128, #41, #54 ), #120 ) ;
#107 = EDGE_CURVE ( 'NONE', #151, #151, #240, .T. ) ;
#108 = FACE_OUTER_BOUND ( 'NONE', #232, .T. ) ;
#109 = DIRECTION ( 'NONE',  ( 4.275831445896958607E-31, 1.000000000000000000, 1.224646799147353207E-16 ) ) ;
#110 = DIRECTION ( 'NONE',  ( -4.252335473556634944E-31, -1.000000000000000000, -1.217917285207545432E-16 ) ) ;
#111 = AXIS2_PLACEMENT_3D ( 'NONE', #221, #146, #17 ) ;
#112 = ADVANCED_FACE ( 'NONE', ( #141 ), #45, .T. ) ;
#113 = DIRECTION ( 'NONE',  ( 0.0000000000000000000, 1.000000000000000000, 0.0000000000000000000 ) ) ;
#114 = CARTESIAN_POINT ( 'NONE',  ( 3.000000000000044853, 0.0000000000000000000, 12.99999999999998757 ) ) ;
#115 = PERSON_AND_ORGANIZATION ( #183, #3 ) ;
#116 = PERSON_AND_ORGANIZATION ( #183, #3 ) ;
#117 = PERSON_AND_ORGANIZATION_ROLE ( 'classification_officer' ) ;
#118 = EDGE_CURVE ( 'NONE', #32, #32, #147, .T. ) ;
#119 = APPROVAL_ROLE ( '' ) ;
#120 =( GEOMETRIC_REPRESENTATION_CONTEXT ( 3 ) GLOBAL_UNCERTAINTY_ASSIGNED_CONTEXT ( ( #34 ) ) GLOBAL_UNIT_ASSIGNED_CONTEXT ( ( #243, #222, #150 ) ) REPRESENTATION_CONTEXT ( 'NONE', 'WORKASPACE' ) );
#121 = DIRECTION ( 'NONE',  ( -3.491481338843133355E-15, 1.224646799147353207E-16, -1.000000000000000000 ) ) ;
#122 = DIRECTION ( 'NONE',  ( -3.491481338843133355E-15, 1.224646799147353207E-16, -1.000000000000000000 ) ) ;
#123 = CARTESIAN_POINT ( 'NONE',  ( 0.0000000000000000000, 0.0000000000000000000, 0.0000000000000000000 ) ) ;
#124 = CARTESIAN_POINT ( 'NONE',  ( -1.190653932595857609E-30, 4.153303038100488631E-32, -3.410168398581126619E-16 ) ) ;
#125 = FACE_OUTER_BOUND ( 'NONE', #65, .T. ) ;
#126 = DIRECTION ( 'NONE',  ( 0.0000000000000000000, 1.000000000000000000, 0.0000000000000000000 ) ) ;
#127 = ADVANCED_FACE ( 'NONE', ( #69, #31 ), #217, .F. ) ;
#128 = MANIFOLD_SOLID_BREP ( 'Corps-Déplacer/Copier1[1]', #227 ) ;
#129 = APPROVAL ( #157, 'UNSPECIFIED' ) ;
#130 = VERTEX_POINT ( 'NONE', #207 ) ;
#131 = AXIS2_PLACEMENT_3D ( 'NONE', #24, #53, #202 ) ;
#132 = PERSON_AND_ORGANIZATION_ROLE ( 'creator' ) ;
#133 = DATE_AND_TIME ( #37, #160 ) ;
#134 = EDGE_CURVE ( 'NONE', #2, #2, #33, .T. ) ;
#135 = PERSON_AND_ORGANIZATION_ROLE ( 'design_owner' ) ;
#136 = AXIS2_PLACEMENT_3D ( 'NONE', #89, #87, #109 ) ;
#137 = CARTESIAN_POINT ( 'NONE',  ( 2.182175836776957779E-13, -7.654042494670956226E-15, 62.49999999999998579 ) ) ;
#138 = PRODUCT ( '955088', '955088', '', ( #75 ) ) ;
#139 = APPLICATION_CONTEXT ( 'configuration controlled 3d designs of mechanical parts and assemblies' ) ;
#140 = APPROVAL_PERSON_ORGANIZATION ( #115, #48, #189 ) ;
#141 = FACE_OUTER_BOUND ( 'NONE', #13, .T. ) ;
#142 = FACE_OUTER_BOUND ( 'NONE', #84, .T. ) ;
#143 = EDGE_LOOP ( 'NONE', ( #145 ) ) ;
#144 = PRODUCT_RELATED_PRODUCT_CATEGORY ( 'detail', '', ( #138 ) ) ;
#145 = ORIENTED_EDGE ( 'NONE', *, *, #19, .T. ) ;
#146 = DIRECTION ( 'NONE',  ( 3.491481338843133355E-15, -0.0000000000000000000, 1.000000000000000000 ) ) ;
#147 = CIRCLE ( 'NONE', #131, 3.000000000000000000 ) ;
#148 = ADVANCED_FACE ( 'NONE', ( #108 ), #67, .F. ) ;
#149 = DIRECTION ( 'NONE',  ( -3.491481338843133355E-15, 1.224646799147353207E-16, -1.000000000000000000 ) ) ;
#150 =( NAMED_UNIT ( * ) SI_UNIT ( $, .STERADIAN. ) SOLID_ANGLE_UNIT ( ) );
#151 = VERTEX_POINT ( 'NONE', #223 ) ;
#152 = AXIS2_PLACEMENT_3D ( 'NONE', #137, #102, #78 ) ;
#153 = LOCAL_TIME ( 9, 3, 33.00000000000000000, #97 ) ;
#154 = PERSON_AND_ORGANIZATION_ROLE ( 'creator' ) ;
#155 = EDGE_CURVE ( 'NONE', #166, #166, #90, .T. ) ;
#156 = COORDINATED_UNIVERSAL_TIME_OFFSET ( 1, 0, .AHEAD. ) ;
#157 = APPROVAL_STATUS ( 'not_yet_approved' ) ;
#158 = ORIENTED_EDGE ( 'NONE', *, *, #19, .F. ) ;
#159 = FACE_OUTER_BOUND ( 'NONE', #218, .T. ) ;
#160 = LOCAL_TIME ( 9, 3, 33.00000000000000000, #156 ) ;
#161 = ORIENTED_EDGE ( 'NONE', *, *, #118, .T. ) ;
#162 = CC_DESIGN_PERSON_AND_ORGANIZATION_ASSIGNMENT ( #5, #117, ( #73 ) ) ;
#163 = FACE_BOUND ( 'NONE', #43, .T. ) ;
#164 = ORIENTED_EDGE ( 'NONE', *, *, #155, .T. ) ;
#165 = DIRECTION ( 'NONE',  ( 1.000000000000000000, 0.0000000000000000000, -3.491481338843132961E-15 ) ) ;
#166 = VERTEX_POINT ( 'NONE', #114 ) ;
#167 = CARTESIAN_POINT ( 'NONE',  ( 2.199633243471174140E-13, -7.715274834628325378E-15, 63.00000000000000000 ) ) ;
#168 = FACE_OUTER_BOUND ( 'NONE', #66, .T. ) ;
#169 = CARTESIAN_POINT ( 'NONE',  ( 2.182175836776957779E-13, 3.999999999999991562, 62.49999999999998579 ) ) ;
#170 = CC_DESIGN_DATE_AND_TIME_ASSIGNMENT ( #133, #4, ( #206 ) ) ;
#171 = AXIS2_PLACEMENT_3D ( 'NONE', #167, #149, #113 ) ;
#172 = ADVANCED_FACE ( 'NONE', ( #52, #125 ), #231, .T. ) ;
#173 = DATE_AND_TIME ( #210, #153 ) ;
#174 = APPROVAL_ROLE ( '' ) ;
#175 = CALENDAR_DATE ( 2021, 17, 11 ) ;
#176 = FACE_OUTER_BOUND ( 'NONE', #143, .T. ) ;
#177 = ADVANCED_FACE ( 'NONE', ( #168 ), #91, .T. ) ;
#178 = FACE_OUTER_BOUND ( 'NONE', #25, .T. ) ;
#179 = ORIENTED_EDGE ( 'NONE', *, *, #198, .T. ) ;
#180 = EDGE_CURVE ( 'NONE', #55, #55, #15, .T. ) ;
#181 = DIRECTION ( 'NONE',  ( 3.491481338843133355E-15, -1.224646799147353207E-16, 1.000000000000000000 ) ) ;
#182 = DIRECTION ( 'NONE',  ( 3.491481338843133355E-15, -1.224646799147353207E-16, 1.000000000000000000 ) ) ;
#183 = PERSON ( 'UNSPECIFIED', 'UNSPECIFIED', 'UNSPECIFIED', ('UNSPECIFIED'), ('UNSPECIFIED'), ('UNSPECIFIED') ) ;
#184 = LOCAL_TIME ( 9, 3, 33.00000000000000000, #95 ) ;
#185 = CARTESIAN_POINT ( 'NONE',  ( 4.538925740496072731E-14, 0.0000000000000000000, 12.99999999999999822 ) ) ;
#186 = DESIGN_CONTEXT ( 'detailed design', #72, 'design' ) ;
#187 = CARTESIAN_POINT ( 'NONE',  ( 4.538925740496073362E-14, 0.0000000000000000000, 13.00000000000000000 ) ) ;
#188 = CC_DESIGN_PERSON_AND_ORGANIZATION_ASSIGNMENT ( #116, #154, ( #30 ) ) ;
#189 = APPROVAL_ROLE ( '' ) ;
#190 = AXIS2_PLACEMENT_3D ( 'NONE', #185, #16, #241 ) ;
#191 = SECURITY_CLASSIFICATION_LEVEL ( 'unclassified' ) ;
#192 = AXIS2_PLACEMENT_3D ( 'NONE', #29, #182, #14 ) ;
#193 = APPLICATION_PROTOCOL_DEFINITION ( 'international standard', 'config_control_design', 1994, #72 ) ;
#194 = EDGE_LOOP ( 'NONE', ( #99 ) ) ;
#195 = FACE_OUTER_BOUND ( 'NONE', #64, .T. ) ;
#196 = AXIS2_PLACEMENT_3D ( 'NONE', #50, #80, #63 ) ;
#197 = DIRECTION ( 'NONE',  ( 4.275831445896958607E-31, 1.000000000000000000, 1.224646799147353207E-16 ) ) ;
#198 = EDGE_CURVE ( 'NONE', #130, #130, #88, .T. ) ;
#199 = DIRECTION ( 'NONE',  ( 4.275831445896958607E-31, 1.000000000000000000, 1.224646799147353207E-16 ) ) ;
#200 = DIRECTION ( 'NONE',  ( 3.491481338843133355E-15, -1.217917285207545432E-16, 1.000000000000000000 ) ) ;
#201 = CONICAL_SURFACE ( 'NONE', #105, 3.000000000000000000, 0.7853981633974496113 ) ;
#202 = DIRECTION ( 'NONE',  ( -4.172848212839010723E-31, -1.000000000000000000, -1.174552353525963055E-16 ) ) ;
#203 = CARTESIAN_POINT ( 'NONE',  ( 2.182175836776957779E-13, -7.654042494670956226E-15, 62.49999999999998579 ) ) ;
#204 = APPROVAL_PERSON_ORGANIZATION ( #18, #129, #174 ) ;
#205 = DIRECTION ( 'NONE',  ( -3.491481338843133355E-15, 1.224646799147353207E-16, -1.000000000000000000 ) ) ;
#206 = PRODUCT_DEFINITION ( 'UNKNOWN', '', #30, #186 ) ;
#207 = CARTESIAN_POINT ( 'NONE',  ( 2.199633243471174140E-13, 3.499999999999992450, 63.00000000000000000 ) ) ;
#208 = CARTESIAN_POINT ( 'NONE',  ( 6.982962677686241073E-16, -3.000000000000000000, 0.1999999999999992895 ) ) ;
#209 = PRODUCT_DEFINITION_SHAPE ( 'NONE', 'NONE',  #206 ) ;
#210 = CALENDAR_DATE ( 2021, 17, 11 ) ;
#211 = SHAPE_DEFINITION_REPRESENTATION ( #209, #106 ) ;
#212 = APPROVAL_DATE_TIME ( #21, #48 ) ;
#213 = COORDINATED_UNIVERSAL_TIME_OFFSET ( 1, 0, .AHEAD. ) ;
#214 = DIRECTION ( 'NONE',  ( -4.275831445896958607E-31, -1.000000000000000000, -1.224646799147353207E-16 ) ) ;
#215 = LOCAL_TIME ( 9, 3, 33.00000000000000000, #98 ) ;
#216 = CARTESIAN_POINT ( 'NONE',  ( -8.551662891793915461E-31, 2.999519565323715216E-32, -2.449293598294706414E-16 ) ) ;
#217 = TOROIDAL_SURFACE ( 'NONE', #58, 10.99999999999999822, 8.000000000000000000 ) ;
#218 = EDGE_LOOP ( 'NONE', ( #61 ) ) ;
#219 = CARTESIAN_POINT ( 'NONE',  ( 6.982962677686253892E-16, -2.435834570415086304E-17, 0.1999999999999996225 ) ) ;
#220 = DIRECTION ( 'NONE',  ( 3.491481338843133355E-15, -0.0000000000000000000, 1.000000000000000000 ) ) ;
#221 = CARTESIAN_POINT ( 'NONE',  ( 4.538925740496072731E-14, 0.0000000000000000000, 12.99999999999999822 ) ) ;
#222 =( NAMED_UNIT ( * ) PLANE_ANGLE_UNIT ( ) SI_UNIT ( $, .RADIAN. ) );
#223 = CARTESIAN_POINT ( 'NONE',  ( -3.999999999999940936, 0.0000000000000000000, 16.87298334620743390 ) ) ;
#224 = AXIS2_PLACEMENT_3D ( 'NONE', #203, #205, #126 ) ;
#225 = CARTESIAN_POINT ( 'NONE',  ( 3.000000000000044853, 0.0000000000000000000, 12.99999999999998757 ) ) ;
#226 = APPLICATION_PROTOCOL_DEFINITION ( 'international standard', 'config_control_design', 1994, #139 ) ;
#227 = CLOSED_SHELL ( 'NONE', ( #77, #172, #148, #127, #92 ) ) ;
#228 = PERSON_AND_ORGANIZATION ( #183, #3 ) ;
#229 = PERSON_AND_ORGANIZATION ( #183, #3 ) ;
#230 = CC_DESIGN_PERSON_AND_ORGANIZATION_ASSIGNMENT ( #6, #135, ( #138 ) ) ;
#231 = CONICAL_SURFACE ( 'NONE', #224, 3.999999999999999112, 0.7853981633974331800 ) ;
#232 = EDGE_LOOP ( 'NONE', ( #49 ) ) ;
#233 = CARTESIAN_POINT ( 'NONE',  ( -6.413747168845438786E-31, 0.0000000000000000000, -1.836970198721029934E-16 ) ) ;
#234 = CC_DESIGN_APPROVAL ( #129, ( #73 ) ) ;
#235 = ORIENTED_EDGE ( 'NONE', *, *, #107, .T. ) ;
#236 = ORIENTED_EDGE ( 'NONE', *, *, #180, .T. ) ;
#237 = FACE_OUTER_BOUND ( 'NONE', #12, .T. ) ;
#238 = DIRECTION ( 'NONE',  ( 3.491481338843133355E-15, -1.217917285207545432E-16, 1.000000000000000000 ) ) ;
#239 = VERTEX_POINT ( 'NONE', #169 ) ;
#240 = CIRCLE ( 'NONE', #196, 4.000000000000000000 ) ;
#241 = DIRECTION ( 'NONE',  ( 1.000000000000000000, 0.0000000000000000000, -3.469446951953615372E-15 ) ) ;
#242 = APPROVAL ( #38, 'UNSPECIFIED' ) ;
#243 =( LENGTH_UNIT ( ) NAMED_UNIT ( * ) SI_UNIT ( .MILLI., .METRE. ) );
ENDSEC;
END-ISO-10303-21;
