ISO-10303-21;
HEADER;
FILE_DESCRIPTION (( 'STEP AP203' ),
    '1' );
FILE_NAME ('955088.step',
    '2021-11-17T08:26:58',
    ( '' ),
    ( '' ),
    'SwSTEP 2.0',
    'SolidWorks 2019',
    '' );
FILE_SCHEMA (( 'CONFIG_CONTROL_DESIGN' ));
ENDSEC;

DATA;
#1 = ADVANCED_BREP_SHAPE_REPRESENTATION ( '955088', ( #143, #138, #160 ), #237 ) ;
#2 = DIRECTION ( 'NONE',  ( -3.491481338843133355E-15, 1.224646799147353207E-16, -1.000000000000000000 ) ) ;
#3 = LOCAL_TIME ( 9, 26, 58.00000000000000000, #29 ) ;
#4 = DIRECTION ( 'NONE',  ( -1.000000000000000000, 0.0000000000000000000, 3.469446951953614189E-15 ) ) ;
#5 = SECURITY_CLASSIFICATION_LEVEL ( 'unclassified' ) ;
#6 = PERSON_AND_ORGANIZATION_ROLE ( 'classification_officer' ) ;
#7 = APPLICATION_CONTEXT ( 'configuration controlled 3d designs of mechanical parts and assemblies' ) ;
#8 = CC_DESIGN_SECURITY_CLASSIFICATION ( #20, ( #74 ) ) ;
#9 = DIRECTION ( 'NONE',  ( 3.491481338843133355E-15, -1.217917285207545432E-16, 1.000000000000000000 ) ) ;
#10 = AXIS2_PLACEMENT_3D ( 'NONE', #188, #9, #162 ) ;
#11 = CARTESIAN_POINT ( 'NONE',  ( 5.891170648389417753E-14, 0.0000000000000000000, 16.87298334620742324 ) ) ;
#12 = FACE_OUTER_BOUND ( 'NONE', #164, .T. ) ;
#13 = FACE_OUTER_BOUND ( 'NONE', #171, .T. ) ;
#14 = VERTEX_POINT ( 'NONE', #109 ) ;
#15 = EDGE_CURVE ( 'NONE', #50, #50, #170, .T. ) ;
#16 =( NAMED_UNIT ( * ) PLANE_ANGLE_UNIT ( ) SI_UNIT ( $, .RADIAN. ) );
#17 = ADVANCED_FACE ( 'NONE', ( #122 ), #59, .T. ) ;
#18 = PERSON_AND_ORGANIZATION ( #141, #93 ) ;
#19 = CIRCLE ( 'NONE', #116, 3.500000000000000000 ) ;
#20 = SECURITY_CLASSIFICATION ( '', '', #5 ) ;
#21 = CC_DESIGN_PERSON_AND_ORGANIZATION_ASSIGNMENT ( #35, #6, ( #20 ) ) ;
#22 = EDGE_LOOP ( 'NONE', ( #207 ) ) ;
#23 = ORIENTED_EDGE ( 'NONE', *, *, #15, .T. ) ;
#24 = CC_DESIGN_PERSON_AND_ORGANIZATION_ASSIGNMENT ( #228, #132, ( #74 ) ) ;
#25 = CARTESIAN_POINT ( 'NONE',  ( 2.199633243471174140E-13, -7.715274834628325378E-15, 63.00000000000000000 ) ) ;
#26 = DIRECTION ( 'NONE',  ( 0.0000000000000000000, 1.000000000000000000, 0.0000000000000000000 ) ) ;
#27 = ORIENTED_EDGE ( 'NONE', *, *, #112, .F. ) ;
#28 = DIRECTION ( 'NONE',  ( 0.0000000000000000000, 1.000000000000000000, 0.0000000000000000000 ) ) ;
#29 = COORDINATED_UNIVERSAL_TIME_OFFSET ( 1, 0, .AHEAD. ) ;
#30 = VERTEX_POINT ( 'NONE', #128 ) ;
#31 = CARTESIAN_POINT ( 'NONE',  ( 3.000000000000044853, 0.0000000000000000000, 12.99999999999998757 ) ) ;
#32 = TOROIDAL_SURFACE ( 'NONE', #36, 10.99999999999999822, 8.000000000000000000 ) ;
#33 = VERTEX_POINT ( 'NONE', #31 ) ;
#34 = CALENDAR_DATE ( 2021, 17, 11 ) ;
#35 = PERSON_AND_ORGANIZATION ( #141, #93 ) ;
#36 = AXIS2_PLACEMENT_3D ( 'NONE', #57, #241, #100 ) ;
#37 = FACE_OUTER_BOUND ( 'NONE', #178, .T. ) ;
#38 = APPROVAL ( #44, 'UNSPECIFIED' ) ;
#39 = FACE_OUTER_BOUND ( 'NONE', #55, .T. ) ;
#40 = CARTESIAN_POINT ( 'NONE',  ( 4.538925740496073362E-14, 2.999519565323712479E-32, 13.00000000000000000 ) ) ;
#41 = DIRECTION ( 'NONE',  ( 3.491481338843133355E-15, -1.224646799147353207E-16, 1.000000000000000000 ) ) ;
#42 = COORDINATED_UNIVERSAL_TIME_OFFSET ( 1, 0, .AHEAD. ) ;
#43 = DIRECTION ( 'NONE',  ( -3.491481338843133355E-15, 1.224646799147353207E-16, -1.000000000000000000 ) ) ;
#44 = APPROVAL_STATUS ( 'not_yet_approved' ) ;
#45 = APPROVAL_PERSON_ORGANIZATION ( #166, #38, #151 ) ;
#46 = APPROVAL_PERSON_ORGANIZATION ( #18, #214, #90 ) ;
#47 = DATE_AND_TIME ( #180, #3 ) ;
#48 = FACE_OUTER_BOUND ( 'NONE', #243, .T. ) ;
#49 = CC_DESIGN_DATE_AND_TIME_ASSIGNMENT ( #193, #190, ( #20 ) ) ;
#50 = VERTEX_POINT ( 'NONE', #220 ) ;
#51 = PERSON_AND_ORGANIZATION_ROLE ( 'creator' ) ;
#52 = EDGE_CURVE ( 'NONE', #195, #195, #217, .T. ) ;
#53 = ADVANCED_FACE ( 'NONE', ( #213, #39 ), #81, .T. ) ;
#54 = COORDINATED_UNIVERSAL_TIME_OFFSET ( 1, 0, .AHEAD. ) ;
#55 = EDGE_LOOP ( 'NONE', ( #75 ) ) ;
#56 = ADVANCED_FACE ( 'NONE', ( #176, #12 ), #88, .T. ) ;
#57 = CARTESIAN_POINT ( 'NONE',  ( 4.538925740496073362E-14, 0.0000000000000000000, 13.00000000000000000 ) ) ;
#58 = AXIS2_PLACEMENT_3D ( 'NONE', #173, #146, #236 ) ;
#59 = PLANE ( 'NONE',  #78 ) ;
#60 = DIRECTION ( 'NONE',  ( 1.000000000000000000, 0.0000000000000000000, -3.469446951953615372E-15 ) ) ;
#61 = CARTESIAN_POINT ( 'NONE',  ( 2.182175836776957779E-13, -7.654042494670956226E-15, 62.49999999999998579 ) ) ;
#62 = AXIS2_PLACEMENT_3D ( 'NONE', #145, #215, #191 ) ;
#63 = PERSON_AND_ORGANIZATION_ROLE ( 'design_owner' ) ;
#64 = FACE_OUTER_BOUND ( 'NONE', #142, .T. ) ;
#65 = CARTESIAN_POINT ( 'NONE',  ( -1.190653932595857609E-30, 4.153303038100488631E-32, -3.410168398581126619E-16 ) ) ;
#66 = CC_DESIGN_DATE_AND_TIME_ASSIGNMENT ( #73, #94, ( #210 ) ) ;
#67 = VERTEX_POINT ( 'NONE', #181 ) ;
#68 = AXIS2_PLACEMENT_3D ( 'NONE', #11, #79, #4 ) ;
#69 = LOCAL_TIME ( 9, 26, 58.00000000000000000, #42 ) ;
#70 = EDGE_LOOP ( 'NONE', ( #23 ) ) ;
#71 = PRODUCT_RELATED_PRODUCT_CATEGORY ( 'detail', '', ( #222 ) ) ;
#72 = PRODUCT_DEFINITION_SHAPE ( 'NONE', 'NONE',  #210 ) ;
#73 = DATE_AND_TIME ( #184, #85 ) ;
#74 = PRODUCT_DEFINITION_FORMATION_WITH_SPECIFIED_SOURCE ( 'ANY', '', #222, .NOT_KNOWN. ) ;
#75 = ORIENTED_EDGE ( 'NONE', *, *, #205, .T. ) ;
#76 = FACE_BOUND ( 'NONE', #159, .T. ) ;
#77 = FACE_OUTER_BOUND ( 'NONE', #234, .T. ) ;
#78 = AXIS2_PLACEMENT_3D ( 'NONE', #40, #216, #98 ) ;
#79 = DIRECTION ( 'NONE',  ( 3.491481338843133355E-15, -0.0000000000000000000, 1.000000000000000000 ) ) ;
#80 = CARTESIAN_POINT ( 'NONE',  ( 4.538925740496073362E-14, 2.999519565323712479E-32, 13.00000000000000000 ) ) ;
#81 = CYLINDRICAL_SURFACE ( 'NONE', #58, 4.000000000000000000 ) ;
#82 = AXIS2_PLACEMENT_3D ( 'NONE', #102, #177, #172 ) ;
#83 = APPROVAL_DATE_TIME ( #47, #38 ) ;
#84 =( NAMED_UNIT ( * ) SI_UNIT ( $, .STERADIAN. ) SOLID_ANGLE_UNIT ( ) );
#85 = LOCAL_TIME ( 9, 26, 58.00000000000000000, #115 ) ;
#86 = DIRECTION ( 'NONE',  ( 1.000000000000000000, 0.0000000000000000000, -3.491481338843133355E-15 ) ) ;
#87 = MECHANICAL_CONTEXT ( 'NONE', #97, 'mechanical' ) ;
#88 = CONICAL_SURFACE ( 'NONE', #82, 3.000000000000000000, 0.7853981633974496113 ) ;
#89 = APPROVAL ( #136, 'UNSPECIFIED' ) ;
#90 = APPROVAL_ROLE ( '' ) ;
#91 = EDGE_LOOP ( 'NONE', ( #233 ) ) ;
#92 = CC_DESIGN_PERSON_AND_ORGANIZATION_ASSIGNMENT ( #226, #51, ( #210 ) ) ;
#93 = ORGANIZATION ( 'UNSPECIFIED', 'UNSPECIFIED', '' ) ;
#94 = DATE_TIME_ROLE ( 'creation_date' ) ;
#95 = ORIENTED_EDGE ( 'NONE', *, *, #110, .T. ) ;
#96 = APPROVAL_ROLE ( '' ) ;
#97 = APPLICATION_CONTEXT ( 'configuration controlled 3d designs of mechanical parts and assemblies' ) ;
#98 = DIRECTION ( 'NONE',  ( -4.275831445896958607E-31, -1.000000000000000000, -1.224646799147353207E-16 ) ) ;
#99 = ORIENTED_EDGE ( 'NONE', *, *, #110, .F. ) ;
#100 = DIRECTION ( 'NONE',  ( 1.000000000000000000, 0.0000000000000000000, -3.491481338843132961E-15 ) ) ;
#101 = AXIS2_PLACEMENT_3D ( 'NONE', #65, #154, #227 ) ;
#102 = CARTESIAN_POINT ( 'NONE',  ( 6.982962677686253892E-16, -2.435834570415086304E-17, 0.1999999999999996225 ) ) ;
#103 = EDGE_LOOP ( 'NONE', ( #211 ) ) ;
#104 = ADVANCED_FACE ( 'NONE', ( #119 ), #137, .F. ) ;
#105 = DIRECTION ( 'NONE',  ( 3.491481338843133355E-15, -0.0000000000000000000, 1.000000000000000000 ) ) ;
#106 = ADVANCED_FACE ( 'NONE', ( #76, #37 ), #183, .T. ) ;
#107 =( LENGTH_UNIT ( ) NAMED_UNIT ( * ) SI_UNIT ( .MILLI., .METRE. ) );
#108 = CC_DESIGN_APPROVAL ( #38, ( #210 ) ) ;
#109 = CARTESIAN_POINT ( 'NONE',  ( 2.199633243471174140E-13, 3.499999999999992450, 63.00000000000000000 ) ) ;
#110 = EDGE_CURVE ( 'NONE', #33, #33, #121, .T. ) ;
#111 = AXIS2_PLACEMENT_3D ( 'NONE', #61, #194, #26 ) ;
#112 = EDGE_CURVE ( 'NONE', #14, #14, #19, .T. ) ;
#113 = CC_DESIGN_PERSON_AND_ORGANIZATION_ASSIGNMENT ( #124, #63, ( #222 ) ) ;
#114 = ORIENTED_EDGE ( 'NONE', *, *, #205, .F. ) ;
#115 = COORDINATED_UNIVERSAL_TIME_OFFSET ( 1, 0, .AHEAD. ) ;
#116 = AXIS2_PLACEMENT_3D ( 'NONE', #25, #43, #123 ) ;
#117 = LOCAL_TIME ( 9, 26, 58.00000000000000000, #140 ) ;
#118 = DIRECTION ( 'NONE',  ( -3.491481338843133355E-15, 1.224646799147353207E-16, -1.000000000000000000 ) ) ;
#119 = FACE_OUTER_BOUND ( 'NONE', #103, .T. ) ;
#120 = FACE_OUTER_BOUND ( 'NONE', #70, .T. ) ;
#121 = CIRCLE ( 'NONE', #179, 2.999999999999999112 ) ;
#122 = FACE_OUTER_BOUND ( 'NONE', #134, .T. ) ;
#123 = DIRECTION ( 'NONE',  ( 0.0000000000000000000, 1.000000000000000000, 0.0000000000000000000 ) ) ;
#124 = PERSON_AND_ORGANIZATION ( #141, #93 ) ;
#125 = APPLICATION_PROTOCOL_DEFINITION ( 'international standard', 'config_control_design', 1994, #97 ) ;
#126 = CIRCLE ( 'NONE', #10, 3.000000000000000000 ) ;
#127 = CARTESIAN_POINT ( 'NONE',  ( -6.413747168845438786E-31, 0.0000000000000000000, -1.836970198721029934E-16 ) ) ;
#128 = CARTESIAN_POINT ( 'NONE',  ( 6.982962677686241073E-16, -3.000000000000000000, 0.1999999999999992895 ) ) ;
#129 = PLANE ( 'NONE',  #208 ) ;
#130 = PERSON_AND_ORGANIZATION ( #141, #93 ) ;
#131 = APPROVAL_DATE_TIME ( #203, #89 ) ;
#132 = PERSON_AND_ORGANIZATION_ROLE ( 'creator' ) ;
#133 = EDGE_CURVE ( 'NONE', #30, #30, #126, .T. ) ;
#134 = EDGE_LOOP ( 'NONE', ( #95 ) ) ;
#135 = ORIENTED_EDGE ( 'NONE', *, *, #52, .F. ) ;
#136 = APPROVAL_STATUS ( 'not_yet_approved' ) ;
#137 = PLANE ( 'NONE',  #152 ) ;
#138 = MANIFOLD_SOLID_BREP ( 'Corps-Déplacer/Copier1[2]', #167 ) ;
#139 = AXIS2_PLACEMENT_3D ( 'NONE', #242, #212, #60 ) ;
#140 = COORDINATED_UNIVERSAL_TIME_OFFSET ( 1, 0, .AHEAD. ) ;
#141 = PERSON ( 'UNSPECIFIED', 'UNSPECIFIED', 'UNSPECIFIED', ('UNSPECIFIED'), ('UNSPECIFIED'), ('UNSPECIFIED') ) ;
#142 = EDGE_LOOP ( 'NONE', ( #99 ) ) ;
#143 = MANIFOLD_SOLID_BREP ( 'Corps-Déplacer/Copier1[1]', #229 ) ;
#144 = CALENDAR_DATE ( 2021, 17, 11 ) ;
#145 = CARTESIAN_POINT ( 'NONE',  ( -8.551662891793915461E-31, 2.999519565323715216E-32, -2.449293598294706414E-16 ) ) ;
#146 = DIRECTION ( 'NONE',  ( -3.491481338843133355E-15, 1.224646799147353207E-16, -1.000000000000000000 ) ) ;
#147 = AXIS2_PLACEMENT_3D ( 'NONE', #192, #118, #28 ) ;
#148 = DIRECTION ( 'NONE',  ( -4.275831445896958607E-31, -1.000000000000000000, -1.224646799147353207E-16 ) ) ;
#149 = APPLICATION_PROTOCOL_DEFINITION ( 'international standard', 'config_control_design', 1994, #7 ) ;
#150 = CARTESIAN_POINT ( 'NONE',  ( -2.381307865191715218E-30, -2.799999999999999378, -6.820336797162253238E-16 ) ) ;
#151 = APPROVAL_ROLE ( '' ) ;
#152 = AXIS2_PLACEMENT_3D ( 'NONE', #80, #41, #148 ) ;
#153 = APPROVAL_PERSON_ORGANIZATION ( #235, #89, #96 ) ;
#154 = DIRECTION ( 'NONE',  ( 3.491481338843133355E-15, -1.217917285207545432E-16, 1.000000000000000000 ) ) ;
#155 = ORIENTED_EDGE ( 'NONE', *, *, #133, .T. ) ;
#156 = CALENDAR_DATE ( 2021, 17, 11 ) ;
#157 = AXIS2_PLACEMENT_3D ( 'NONE', #127, #105, #86 ) ;
#158 = DESIGN_CONTEXT ( 'detailed design', #7, 'design' ) ;
#159 = EDGE_LOOP ( 'NONE', ( #230 ) ) ;
#160 = AXIS2_PLACEMENT_3D ( 'NONE', #169, #165, #197 ) ;
#161 = FACE_OUTER_BOUND ( 'NONE', #204, .T. ) ;
#162 = DIRECTION ( 'NONE',  ( -4.172848212839010723E-31, -1.000000000000000000, -1.174552353525963055E-16 ) ) ;
#163 = CARTESIAN_POINT ( 'NONE',  ( 4.538925740496072731E-14, 0.0000000000000000000, 12.99999999999999822 ) ) ;
#164 = EDGE_LOOP ( 'NONE', ( #186 ) ) ;
#165 = DIRECTION ( 'NONE',  ( 0.0000000000000000000, 0.0000000000000000000, 1.000000000000000000 ) ) ;
#166 = PERSON_AND_ORGANIZATION ( #141, #93 ) ;
#167 = CLOSED_SHELL ( 'NONE', ( #225, #17, #56, #199 ) ) ;
#168 = CARTESIAN_POINT ( 'NONE',  ( 2.182175836776957779E-13, 3.999999999999991562, 62.49999999999998579 ) ) ;
#169 = CARTESIAN_POINT ( 'NONE',  ( 0.0000000000000000000, 0.0000000000000000000, 0.0000000000000000000 ) ) ;
#170 = CIRCLE ( 'NONE', #139, 2.999999999999999112 ) ;
#171 = EDGE_LOOP ( 'NONE', ( #155 ) ) ;
#172 = DIRECTION ( 'NONE',  ( -4.172848212839010723E-31, -1.000000000000000000, -1.174552353525963055E-16 ) ) ;
#173 = CARTESIAN_POINT ( 'NONE',  ( 0.0000000000000000000, 0.0000000000000000000, 0.0000000000000000000 ) ) ;
#174 = CIRCLE ( 'NONE', #68, 4.000000000000000000 ) ;
#175 = ADVANCED_FACE ( 'NONE', ( #77, #120 ), #32, .F. ) ;
#176 = FACE_BOUND ( 'NONE', #22, .T. ) ;
#177 = DIRECTION ( 'NONE',  ( 3.491481338843133355E-15, -1.217917285207545432E-16, 1.000000000000000000 ) ) ;
#178 = EDGE_LOOP ( 'NONE', ( #135 ) ) ;
#179 = AXIS2_PLACEMENT_3D ( 'NONE', #163, #189, #219 ) ;
#180 = CALENDAR_DATE ( 2021, 17, 11 ) ;
#181 = CARTESIAN_POINT ( 'NONE',  ( -3.999999999999940936, 0.0000000000000000000, 16.87298334620743390 ) ) ;
#182 = APPROVAL_STATUS ( 'not_yet_approved' ) ;
#183 = CONICAL_SURFACE ( 'NONE', #147, 3.999999999999999112, 0.7853981633974331800 ) ;
#184 = CALENDAR_DATE ( 2021, 17, 11 ) ;
#185 = ORIENTED_EDGE ( 'NONE', *, *, #240, .F. ) ;
#186 = ORIENTED_EDGE ( 'NONE', *, *, #133, .F. ) ;
#187 = CC_DESIGN_APPROVAL ( #89, ( #20 ) ) ;
#188 = CARTESIAN_POINT ( 'NONE',  ( 6.982962677686253892E-16, -2.435834570415086304E-17, 0.1999999999999996225 ) ) ;
#189 = DIRECTION ( 'NONE',  ( 3.491481338843133355E-15, -0.0000000000000000000, 1.000000000000000000 ) ) ;
#190 = DATE_TIME_ROLE ( 'classification_date' ) ;
#191 = DIRECTION ( 'NONE',  ( 4.275831445896958607E-31, 1.000000000000000000, 1.224646799147353207E-16 ) ) ;
#192 = CARTESIAN_POINT ( 'NONE',  ( 2.182175836776957779E-13, -7.654042494670956226E-15, 62.49999999999998579 ) ) ;
#193 = DATE_AND_TIME ( #144, #69 ) ;
#194 = DIRECTION ( 'NONE',  ( -3.491481338843133355E-15, 1.224646799147353207E-16, -1.000000000000000000 ) ) ;
#195 = VERTEX_POINT ( 'NONE', #168 ) ;
#196 = CC_DESIGN_PERSON_AND_ORGANIZATION_ASSIGNMENT ( #130, #206, ( #74 ) ) ;
#197 = DIRECTION ( 'NONE',  ( 1.000000000000000000, 0.0000000000000000000, 0.0000000000000000000 ) ) ;
#198 = CARTESIAN_POINT ( 'NONE',  ( 2.199633243471174140E-13, 2.624579619658239319E-32, 63.00000000000000000 ) ) ;
#199 = ADVANCED_FACE ( 'NONE', ( #161 ), #239, .T. ) ;
#200 = CYLINDRICAL_SURFACE ( 'NONE', #157, 2.999999999999999556 ) ;
#201 = CIRCLE ( 'NONE', #101, 2.799999999999999378 ) ;
#202 = CC_DESIGN_APPROVAL ( #214, ( #74 ) ) ;
#203 = DATE_AND_TIME ( #34, #117 ) ;
#204 = EDGE_LOOP ( 'NONE', ( #185 ) ) ;
#205 = EDGE_CURVE ( 'NONE', #67, #67, #174, .T. ) ;
#206 = PERSON_AND_ORGANIZATION_ROLE ( 'design_supplier' ) ;
#207 = ORIENTED_EDGE ( 'NONE', *, *, #240, .T. ) ;
#208 = AXIS2_PLACEMENT_3D ( 'NONE', #198, #2, #224 ) ;
#209 = DATE_AND_TIME ( #156, #218 ) ;
#210 = PRODUCT_DEFINITION ( 'UNKNOWN', '', #74, #158 ) ;
#211 = ORIENTED_EDGE ( 'NONE', *, *, #15, .F. ) ;
#212 = DIRECTION ( 'NONE',  ( 3.491481338843133355E-15, -0.0000000000000000000, 1.000000000000000000 ) ) ;
#213 = FACE_OUTER_BOUND ( 'NONE', #91, .T. ) ;
#214 = APPROVAL ( #182, 'UNSPECIFIED' ) ;
#215 = DIRECTION ( 'NONE',  ( -3.491481338843133355E-15, 1.224646799147353207E-16, -1.000000000000000000 ) ) ;
#216 = DIRECTION ( 'NONE',  ( 3.491481338843133355E-15, -1.224646799147353207E-16, 1.000000000000000000 ) ) ;
#217 = CIRCLE ( 'NONE', #111, 3.999999999999999112 ) ;
#218 = LOCAL_TIME ( 9, 26, 58.00000000000000000, #54 ) ;
#219 = DIRECTION ( 'NONE',  ( 1.000000000000000000, 0.0000000000000000000, -3.469446951953615372E-15 ) ) ;
#220 = CARTESIAN_POINT ( 'NONE',  ( 3.000000000000044853, 0.0000000000000000000, 12.99999999999998757 ) ) ;
#221 = ADVANCED_FACE ( 'NONE', ( #48 ), #129, .F. ) ;
#222 = PRODUCT ( '955088', '955088', '', ( #87 ) ) ;
#223 = VERTEX_POINT ( 'NONE', #150 ) ;
#224 = DIRECTION ( 'NONE',  ( 4.275831445896958607E-31, 1.000000000000000000, 1.224646799147353207E-16 ) ) ;
#225 = ADVANCED_FACE ( 'NONE', ( #64, #13 ), #200, .T. ) ;
#226 = PERSON_AND_ORGANIZATION ( #141, #93 ) ;
#227 = DIRECTION ( 'NONE',  ( -4.252335473556634944E-31, -1.000000000000000000, -1.217917285207545432E-16 ) ) ;
#228 = PERSON_AND_ORGANIZATION ( #141, #93 ) ;
#229 = CLOSED_SHELL ( 'NONE', ( #53, #106, #221, #175, #104 ) ) ;
#230 = ORIENTED_EDGE ( 'NONE', *, *, #112, .T. ) ;
#231 = SHAPE_DEFINITION_REPRESENTATION ( #72, #1 ) ;
#232 = APPROVAL_DATE_TIME ( #209, #214 ) ;
#233 = ORIENTED_EDGE ( 'NONE', *, *, #52, .T. ) ;
#234 = EDGE_LOOP ( 'NONE', ( #114 ) ) ;
#235 = PERSON_AND_ORGANIZATION ( #141, #93 ) ;
#236 = DIRECTION ( 'NONE',  ( 4.275831445896958607E-31, 1.000000000000000000, 1.224646799147353207E-16 ) ) ;
#237 =( GEOMETRIC_REPRESENTATION_CONTEXT ( 3 ) GLOBAL_UNCERTAINTY_ASSIGNED_CONTEXT ( ( #238 ) ) GLOBAL_UNIT_ASSIGNED_CONTEXT ( ( #107, #16, #84 ) ) REPRESENTATION_CONTEXT ( 'NONE', 'WORKASPACE' ) );
#238 = UNCERTAINTY_MEASURE_WITH_UNIT (LENGTH_MEASURE( 1.000000000000000082E-05 ), #107, 'distance_accuracy_value', 'NONE');
#239 = PLANE ( 'NONE',  #62 ) ;
#240 = EDGE_CURVE ( 'NONE', #223, #223, #201, .T. ) ;
#241 = DIRECTION ( 'NONE',  ( 3.491481338843133355E-15, -0.0000000000000000000, 1.000000000000000000 ) ) ;
#242 = CARTESIAN_POINT ( 'NONE',  ( 4.538925740496072731E-14, 0.0000000000000000000, 12.99999999999999822 ) ) ;
#243 = EDGE_LOOP ( 'NONE', ( #27 ) ) ;
ENDSEC;
END-ISO-10303-21;
