ISO-10303-21;
HEADER;
FILE_DESCRIPTION (( 'STEP AP203' ),
    '1' );
FILE_NAME ('955086.step',
    '2021-11-17T08:03:33',
    ( '' ),
    ( '' ),
    'SwSTEP 2.0',
    'SolidWorks 2019',
    '' );
FILE_SCHEMA (( 'CONFIG_CONTROL_DESIGN' ));
ENDSEC;

DATA;
#1 = ORIENTED_EDGE ( 'NONE', *, *, #94, .T. ) ;
#2 = COORDINATED_UNIVERSAL_TIME_OFFSET ( 1, 0, .AHEAD. ) ;
#3 = PRODUCT_DEFINITION ( 'UNKNOWN', '', #139, #152 ) ;
#4 = CLOSED_SHELL ( 'NONE', ( #43, #72, #202, #89 ) ) ;
#5 = UNCERTAINTY_MEASURE_WITH_UNIT (LENGTH_MEASURE( 1.000000000000000082E-05 ), #129, 'distance_accuracy_value', 'NONE');
#6 = DIRECTION ( 'NONE',  ( -3.491481338843133355E-15, 1.224646799147353207E-16, -1.000000000000000000 ) ) ;
#7 = FACE_BOUND ( 'NONE', #229, .T. ) ;
#8 = CARTESIAN_POINT ( 'NONE',  ( 5.586370142149013368E-14, 0.0000000000000000000, 16.00000000000000000 ) ) ;
#9 = PLANE ( 'NONE',  #227 ) ;
#10 = DIRECTION ( 'NONE',  ( 3.491481338843133355E-15, -1.224646799147353207E-16, 1.000000000000000000 ) ) ;
#11 = APPLICATION_PROTOCOL_DEFINITION ( 'international standard', 'config_control_design', 1994, #224 ) ;
#12 = VERTEX_POINT ( 'NONE', #237 ) ;
#13 = DIRECTION ( 'NONE',  ( -4.126992737972647881E-31, -1.000000000000000000, -1.239088197126290817E-16 ) ) ;
#14 = LOCAL_TIME ( 9, 3, 33.00000000000000000, #192 ) ;
#15 = COORDINATED_UNIVERSAL_TIME_OFFSET ( 1, 0, .AHEAD. ) ;
#16 = DATE_AND_TIME ( #187, #53 ) ;
#17 = EDGE_LOOP ( 'NONE', ( #195 ) ) ;
#18 = CALENDAR_DATE ( 2021, 17, 11 ) ;
#19 = AXIS2_PLACEMENT_3D ( 'NONE', #193, #64, #24 ) ;
#20 = PERSON_AND_ORGANIZATION_ROLE ( 'creator' ) ;
#21 = ADVANCED_FACE ( 'NONE', ( #234 ), #219, .F. ) ;
#22 = APPROVAL_DATE_TIME ( #151, #33 ) ;
#23 = ORIENTED_EDGE ( 'NONE', *, *, #240, .F. ) ;
#24 = DIRECTION ( 'NONE',  ( -4.252335473556634944E-31, -1.000000000000000000, -1.217917285207545679E-16 ) ) ;
#25 = CARTESIAN_POINT ( 'NONE',  ( 2.182175836776957779E-13, -7.654042494670956226E-15, 62.49999999999998579 ) ) ;
#26 = FACE_OUTER_BOUND ( 'NONE', #161, .T. ) ;
#27 = PRODUCT ( '955086', '955086', '', ( #164 ) ) ;
#28 = CARTESIAN_POINT ( 'NONE',  ( 5.586370142149013368E-14, 2.999519565323712479E-32, 16.00000000000000000 ) ) ;
#29 = APPROVAL_PERSON_ORGANIZATION ( #57, #51, #136 ) ;
#30 = DIRECTION ( 'NONE',  ( 0.0000000000000000000, 1.000000000000000000, 0.0000000000000000000 ) ) ;
#31 = CALENDAR_DATE ( 2021, 17, 11 ) ;
#32 = CARTESIAN_POINT ( 'NONE',  ( 3.500000000000055511, 0.0000000000000000000, 15.99999999999998579 ) ) ;
#33 = APPROVAL ( #207, 'UNSPECIFIED' ) ;
#34 = AXIS2_PLACEMENT_3D ( 'NONE', #105, #6, #86 ) ;
#35 = COORDINATED_UNIVERSAL_TIME_OFFSET ( 1, 0, .AHEAD. ) ;
#36 = MANIFOLD_SOLID_BREP ( 'Corps-Déplacer/Copier1[1]', #76 ) ;
#37 = SECURITY_CLASSIFICATION ( '', '', #40 ) ;
#38 = AXIS2_PLACEMENT_3D ( 'NONE', #231, #66, #218 ) ;
#39 = PERSON_AND_ORGANIZATION ( #236, #81 ) ;
#40 = SECURITY_CLASSIFICATION_LEVEL ( 'unclassified' ) ;
#41 = EDGE_LOOP ( 'NONE', ( #189 ) ) ;
#42 = AXIS2_PLACEMENT_3D ( 'NONE', #112, #185, #241 ) ;
#43 = ADVANCED_FACE ( 'NONE', ( #70, #26 ), #48, .T. ) ;
#44 = CARTESIAN_POINT ( 'NONE',  ( 5.586370142149013368E-14, 0.0000000000000000000, 16.00000000000000000 ) ) ;
#45 = FACE_OUTER_BOUND ( 'NONE', #85, .T. ) ;
#46 = CIRCLE ( 'NONE', #167, 4.000000000000000000 ) ;
#47 = CARTESIAN_POINT ( 'NONE',  ( 0.0000000000000000000, 0.0000000000000000000, 0.0000000000000000000 ) ) ;
#48 = CYLINDRICAL_SURFACE ( 'NONE', #65, 3.499999999999999556 ) ;
#49 = DIRECTION ( 'NONE',  ( -4.275831445896958607E-31, -1.000000000000000000, -1.224646799147353207E-16 ) ) ;
#50 = CARTESIAN_POINT ( 'NONE',  ( 6.982962677686250933E-16, -2.435834570415085380E-17, 0.1999999999999995393 ) ) ;
#51 = APPROVAL ( #62, 'UNSPECIFIED' ) ;
#52 = VERTEX_POINT ( 'NONE', #242 ) ;
#53 = LOCAL_TIME ( 9, 3, 33.00000000000000000, #60 ) ;
#54 = CARTESIAN_POINT ( 'NONE',  ( 3.500000000000055511, 0.0000000000000000000, 15.99999999999998579 ) ) ;
#55 = APPROVAL_DATE_TIME ( #100, #51 ) ;
#56 = CALENDAR_DATE ( 2021, 17, 11 ) ;
#57 = PERSON_AND_ORGANIZATION ( #236, #81 ) ;
#58 = ORIENTED_EDGE ( 'NONE', *, *, #149, .F. ) ;
#59 = CC_DESIGN_DATE_AND_TIME_ASSIGNMENT ( #16, #169, ( #37 ) ) ;
#60 = COORDINATED_UNIVERSAL_TIME_OFFSET ( 1, 0, .AHEAD. ) ;
#61 = CIRCLE ( 'NONE', #172, 3.499999999999999556 ) ;
#62 = APPROVAL_STATUS ( 'not_yet_approved' ) ;
#63 = EDGE_LOOP ( 'NONE', ( #188 ) ) ;
#64 = DIRECTION ( 'NONE',  ( 3.491481338843133355E-15, -1.217917285207545432E-16, 1.000000000000000000 ) ) ;
#65 = AXIS2_PLACEMENT_3D ( 'NONE', #125, #144, #196 ) ;
#66 = DIRECTION ( 'NONE',  ( 3.491481338843133355E-15, -1.217917285207545432E-16, 1.000000000000000000 ) ) ;
#67 = DIRECTION ( 'NONE',  ( 1.000000000000000000, 0.0000000000000000000, -3.491481338843133355E-15 ) ) ;
#68 = ADVANCED_FACE ( 'NONE', ( #215, #156 ), #166, .F. ) ;
#69 = ORIENTED_EDGE ( 'NONE', *, *, #98, .F. ) ;
#70 = FACE_OUTER_BOUND ( 'NONE', #138, .T. ) ;
#71 = AXIS2_PLACEMENT_3D ( 'NONE', #216, #123, #30 ) ;
#72 = ADVANCED_FACE ( 'NONE', ( #45 ), #143, .T. ) ;
#73 = DIRECTION ( 'NONE',  ( -1.000000000000000000, 0.0000000000000000000, 3.469446951953614189E-15 ) ) ;
#74 = PERSON_AND_ORGANIZATION ( #236, #81 ) ;
#75 = APPLICATION_CONTEXT ( 'configuration controlled 3d designs of mechanical parts and assemblies' ) ;
#76 = CLOSED_SHELL ( 'NONE', ( #102, #141, #21, #68, #173 ) ) ;
#77 = AXIS2_PLACEMENT_3D ( 'NONE', #25, #88, #157 ) ;
#78 = PERSON_AND_ORGANIZATION_ROLE ( 'design_owner' ) ;
#79 = PERSON_AND_ORGANIZATION_ROLE ( 'design_supplier' ) ;
#80 = AXIS2_PLACEMENT_3D ( 'NONE', #47, #179, #93 ) ;
#81 = ORGANIZATION ( 'UNSPECIFIED', 'UNSPECIFIED', '' ) ;
#82 = PERSON_AND_ORGANIZATION ( #236, #81 ) ;
#83 = ORIENTED_EDGE ( 'NONE', *, *, #135, .T. ) ;
#84 = ORIENTED_EDGE ( 'NONE', *, *, #94, .F. ) ;
#85 = EDGE_LOOP ( 'NONE', ( #101 ) ) ;
#86 = DIRECTION ( 'NONE',  ( 0.0000000000000000000, 1.000000000000000000, 0.0000000000000000000 ) ) ;
#87 = ADVANCED_BREP_SHAPE_REPRESENTATION ( '955086', ( #36, #200, #42 ), #162 ) ;
#88 = DIRECTION ( 'NONE',  ( -3.491481338843133355E-15, 1.224646799147353207E-16, -1.000000000000000000 ) ) ;
#89 = ADVANCED_FACE ( 'NONE', ( #126 ), #9, .T. ) ;
#90 = DIRECTION ( 'NONE',  ( 1.000000000000000000, 0.0000000000000000000, -3.965082230804130614E-15 ) ) ;
#91 = LOCAL_TIME ( 9, 3, 33.00000000000000000, #2 ) ;
#92 = EDGE_LOOP ( 'NONE', ( #58 ) ) ;
#93 = DIRECTION ( 'NONE',  ( 4.275831445896958607E-31, 1.000000000000000000, 1.224646799147353207E-16 ) ) ;
#94 = EDGE_CURVE ( 'NONE', #163, #163, #61, .T. ) ;
#95 = CARTESIAN_POINT ( 'NONE',  ( 5.586370142149013368E-14, 2.999519565323712479E-32, 16.00000000000000000 ) ) ;
#96 = CONICAL_SURFACE ( 'NONE', #221, 3.500000000000000000, 0.7853981633974508325 ) ;
#97 = CARTESIAN_POINT ( 'NONE',  ( 2.199633243471174140E-13, 3.499999999999992450, 63.00000000000000000 ) ) ;
#98 = EDGE_CURVE ( 'NONE', #52, #52, #197, .T. ) ;
#99 = CALENDAR_DATE ( 2021, 17, 11 ) ;
#100 = DATE_AND_TIME ( #18, #91 ) ;
#101 = ORIENTED_EDGE ( 'NONE', *, *, #113, .T. ) ;
#102 = ADVANCED_FACE ( 'NONE', ( #110, #230 ), #178, .T. ) ;
#103 = SHAPE_DEFINITION_REPRESENTATION ( #160, #87 ) ;
#104 = DIRECTION ( 'NONE',  ( -3.491481338843133355E-15, 1.224646799147353207E-16, -1.000000000000000000 ) ) ;
#105 = CARTESIAN_POINT ( 'NONE',  ( 2.199633243471174140E-13, -7.715274834628325378E-15, 63.00000000000000000 ) ) ;
#106 = CC_DESIGN_PERSON_AND_ORGANIZATION_ASSIGNMENT ( #201, #78, ( #27 ) ) ;
#107 = DIRECTION ( 'NONE',  ( 3.491481338843133355E-15, -0.0000000000000000000, 1.000000000000000000 ) ) ;
#108 = DIRECTION ( 'NONE',  ( 3.491481338843133355E-15, -0.0000000000000000000, 1.000000000000000000 ) ) ;
#109 = CC_DESIGN_APPROVAL ( #243, ( #3 ) ) ;
#110 = FACE_OUTER_BOUND ( 'NONE', #140, .T. ) ;
#111 = VERTEX_POINT ( 'NONE', #32 ) ;
#112 = CARTESIAN_POINT ( 'NONE',  ( 0.0000000000000000000, 0.0000000000000000000, 0.0000000000000000000 ) ) ;
#113 = EDGE_CURVE ( 'NONE', #111, #111, #181, .T. ) ;
#114 =( NAMED_UNIT ( * ) PLANE_ANGLE_UNIT ( ) SI_UNIT ( $, .RADIAN. ) );
#115 = PERSON_AND_ORGANIZATION_ROLE ( 'creator' ) ;
#116 = AXIS2_PLACEMENT_3D ( 'NONE', #8, #107, #67 ) ;
#117 = DATE_AND_TIME ( #99, #186 ) ;
#118 = ORIENTED_EDGE ( 'NONE', *, *, #113, .F. ) ;
#119 = CC_DESIGN_PERSON_AND_ORGANIZATION_ASSIGNMENT ( #153, #20, ( #139 ) ) ;
#120 = EDGE_LOOP ( 'NONE', ( #69 ) ) ;
#121 = ORIENTED_EDGE ( 'NONE', *, *, #132, .F. ) ;
#122 = DIRECTION ( 'NONE',  ( 1.000000000000000000, 0.0000000000000000000, -3.965082230804130614E-15 ) ) ;
#123 = DIRECTION ( 'NONE',  ( -3.491481338843133355E-15, 1.224646799147353207E-16, -1.000000000000000000 ) ) ;
#124 = FACE_OUTER_BOUND ( 'NONE', #137, .T. ) ;
#125 = CARTESIAN_POINT ( 'NONE',  ( -6.413747168845438786E-31, 0.0000000000000000000, -1.836970198721029934E-16 ) ) ;
#126 = FACE_OUTER_BOUND ( 'NONE', #142, .T. ) ;
#127 = CC_DESIGN_APPROVAL ( #33, ( #139 ) ) ;
#128 =( NAMED_UNIT ( * ) SI_UNIT ( $, .STERADIAN. ) SOLID_ANGLE_UNIT ( ) );
#129 =( LENGTH_UNIT ( ) NAMED_UNIT ( * ) SI_UNIT ( .MILLI., .METRE. ) );
#130 = CIRCLE ( 'NONE', #19, 3.299999999999998934 ) ;
#131 = AXIS2_PLACEMENT_3D ( 'NONE', #95, #10, #182 ) ;
#132 = EDGE_CURVE ( 'NONE', #165, #165, #130, .T. ) ;
#133 = FACE_BOUND ( 'NONE', #17, .T. ) ;
#134 = PERSON_AND_ORGANIZATION ( #236, #81 ) ;
#135 = EDGE_CURVE ( 'NONE', #147, #147, #190, .T. ) ;
#136 = APPROVAL_ROLE ( '' ) ;
#137 = EDGE_LOOP ( 'NONE', ( #84 ) ) ;
#138 = EDGE_LOOP ( 'NONE', ( #118 ) ) ;
#139 = PRODUCT_DEFINITION_FORMATION_WITH_SPECIFIED_SOURCE ( 'ANY', '', #27, .NOT_KNOWN. ) ;
#140 = EDGE_LOOP ( 'NONE', ( #170 ) ) ;
#141 = ADVANCED_FACE ( 'NONE', ( #7, #194 ), #168, .T. ) ;
#142 = EDGE_LOOP ( 'NONE', ( #121 ) ) ;
#143 = PLANE ( 'NONE',  #203 ) ;
#144 = DIRECTION ( 'NONE',  ( 3.491481338843133355E-15, -0.0000000000000000000, 1.000000000000000000 ) ) ;
#145 = APPROVAL_ROLE ( '' ) ;
#146 = APPROVAL_PERSON_ORGANIZATION ( #74, #243, #145 ) ;
#147 = VERTEX_POINT ( 'NONE', #97 ) ;
#148 = APPROVAL_STATUS ( 'not_yet_approved' ) ;
#149 = EDGE_CURVE ( 'NONE', #204, #204, #177, .T. ) ;
#150 = APPROVAL_DATE_TIME ( #223, #243 ) ;
#151 = DATE_AND_TIME ( #56, #14 ) ;
#152 = DESIGN_CONTEXT ( 'detailed design', #75, 'design' ) ;
#153 = PERSON_AND_ORGANIZATION ( #236, #81 ) ;
#154 = EDGE_LOOP ( 'NONE', ( #1 ) ) ;
#155 = CC_DESIGN_DATE_AND_TIME_ASSIGNMENT ( #117, #214, ( #3 ) ) ;
#156 = FACE_OUTER_BOUND ( 'NONE', #154, .T. ) ;
#157 = DIRECTION ( 'NONE',  ( 0.0000000000000000000, 1.000000000000000000, 0.0000000000000000000 ) ) ;
#158 = ORIENTED_EDGE ( 'NONE', *, *, #149, .T. ) ;
#159 = CARTESIAN_POINT ( 'NONE',  ( 2.199633243471174140E-13, 2.624579619658239319E-32, 63.00000000000000000 ) ) ;
#160 = PRODUCT_DEFINITION_SHAPE ( 'NONE', 'NONE',  #3 ) ;
#161 = EDGE_LOOP ( 'NONE', ( #158 ) ) ;
#162 =( GEOMETRIC_REPRESENTATION_CONTEXT ( 3 ) GLOBAL_UNCERTAINTY_ASSIGNED_CONTEXT ( ( #5 ) ) GLOBAL_UNIT_ASSIGNED_CONTEXT ( ( #129, #114, #128 ) ) REPRESENTATION_CONTEXT ( 'NONE', 'WORKASPACE' ) );
#163 = VERTEX_POINT ( 'NONE', #54 ) ;
#164 = MECHANICAL_CONTEXT ( 'NONE', #224, 'mechanical' ) ;
#165 = VERTEX_POINT ( 'NONE', #205 ) ;
#166 = TOROIDAL_SURFACE ( 'NONE', #116, 11.49999999999999822, 8.000000000000000000 ) ;
#167 = AXIS2_PLACEMENT_3D ( 'NONE', #225, #226, #73 ) ;
#168 = CONICAL_SURFACE ( 'NONE', #77, 3.999999999999999112, 0.7853981633974331800 ) ;
#169 = DATE_TIME_ROLE ( 'classification_date' ) ;
#170 = ORIENTED_EDGE ( 'NONE', *, *, #98, .T. ) ;
#171 = APPROVAL_ROLE ( '' ) ;
#172 = AXIS2_PLACEMENT_3D ( 'NONE', #235, #108, #90 ) ;
#173 = ADVANCED_FACE ( 'NONE', ( #124 ), #183, .F. ) ;
#174 = DIRECTION ( 'NONE',  ( -3.491481338843133355E-15, 1.224646799147353207E-16, -1.000000000000000000 ) ) ;
#175 = CARTESIAN_POINT ( 'NONE',  ( -8.551662891793915461E-31, 2.999519565323715216E-32, -2.449293598294706414E-16 ) ) ;
#176 = DIRECTION ( 'NONE',  ( 4.275831445896958607E-31, 1.000000000000000000, 1.224646799147353207E-16 ) ) ;
#177 = CIRCLE ( 'NONE', #38, 3.500000000000000000 ) ;
#178 = CYLINDRICAL_SURFACE ( 'NONE', #80, 4.000000000000000000 ) ;
#179 = DIRECTION ( 'NONE',  ( -3.491481338843133355E-15, 1.224646799147353207E-16, -1.000000000000000000 ) ) ;
#180 = CC_DESIGN_PERSON_AND_ORGANIZATION_ASSIGNMENT ( #39, #191, ( #37 ) ) ;
#181 = CIRCLE ( 'NONE', #232, 3.499999999999999556 ) ;
#182 = DIRECTION ( 'NONE',  ( -4.275831445896958607E-31, -1.000000000000000000, -1.224646799147353207E-16 ) ) ;
#183 = PLANE ( 'NONE',  #131 ) ;
#184 = FACE_OUTER_BOUND ( 'NONE', #92, .T. ) ;
#185 = DIRECTION ( 'NONE',  ( 0.0000000000000000000, 0.0000000000000000000, 1.000000000000000000 ) ) ;
#186 = LOCAL_TIME ( 9, 3, 33.00000000000000000, #15 ) ;
#187 = CALENDAR_DATE ( 2021, 17, 11 ) ;
#188 = ORIENTED_EDGE ( 'NONE', *, *, #240, .T. ) ;
#189 = ORIENTED_EDGE ( 'NONE', *, *, #135, .F. ) ;
#190 = CIRCLE ( 'NONE', #34, 3.500000000000000000 ) ;
#191 = PERSON_AND_ORGANIZATION_ROLE ( 'classification_officer' ) ;
#192 = COORDINATED_UNIVERSAL_TIME_OFFSET ( 1, 0, .AHEAD. ) ;
#193 = CARTESIAN_POINT ( 'NONE',  ( -1.403270706273689094E-30, 4.894964294904146201E-32, -4.019127041184899089E-16 ) ) ;
#194 = FACE_OUTER_BOUND ( 'NONE', #120, .T. ) ;
#195 = ORIENTED_EDGE ( 'NONE', *, *, #132, .T. ) ;
#196 = DIRECTION ( 'NONE',  ( 1.000000000000000000, 0.0000000000000000000, -3.491481338843133355E-15 ) ) ;
#197 = CIRCLE ( 'NONE', #71, 3.999999999999999112 ) ;
#198 = CC_DESIGN_APPROVAL ( #51, ( #37 ) ) ;
#199 = DIRECTION ( 'NONE',  ( 4.275831445896958607E-31, 1.000000000000000000, 1.224646799147353207E-16 ) ) ;
#200 = MANIFOLD_SOLID_BREP ( 'Corps-Déplacer/Copier1[2]', #4 ) ;
#201 = PERSON_AND_ORGANIZATION ( #236, #81 ) ;
#202 = ADVANCED_FACE ( 'NONE', ( #133, #184 ), #96, .T. ) ;
#203 = AXIS2_PLACEMENT_3D ( 'NONE', #28, #220, #49 ) ;
#204 = VERTEX_POINT ( 'NONE', #239 ) ;
#205 = CARTESIAN_POINT ( 'NONE',  ( -2.806541412547378187E-30, -3.299999999999998934, -8.038254082369798178E-16 ) ) ;
#206 = CC_DESIGN_PERSON_AND_ORGANIZATION_ASSIGNMENT ( #134, #115, ( #3 ) ) ;
#207 = APPROVAL_STATUS ( 'not_yet_approved' ) ;
#208 = APPROVAL_PERSON_ORGANIZATION ( #209, #33, #171 ) ;
#209 = PERSON_AND_ORGANIZATION ( #236, #81 ) ;
#210 = PRODUCT_RELATED_PRODUCT_CATEGORY ( 'detail', '', ( #27 ) ) ;
#211 = EDGE_LOOP ( 'NONE', ( #23 ) ) ;
#212 = AXIS2_PLACEMENT_3D ( 'NONE', #159, #174, #176 ) ;
#213 = LOCAL_TIME ( 9, 3, 33.00000000000000000, #35 ) ;
#214 = DATE_TIME_ROLE ( 'creation_date' ) ;
#215 = FACE_OUTER_BOUND ( 'NONE', #211, .T. ) ;
#216 = CARTESIAN_POINT ( 'NONE',  ( 2.182175836776957779E-13, -7.654042494670956226E-15, 62.49999999999998579 ) ) ;
#217 = CC_DESIGN_SECURITY_CLASSIFICATION ( #37, ( #139 ) ) ;
#218 = DIRECTION ( 'NONE',  ( -4.126992737972647881E-31, -1.000000000000000000, -1.239088197126290817E-16 ) ) ;
#219 = PLANE ( 'NONE',  #212 ) ;
#220 = DIRECTION ( 'NONE',  ( 3.491481338843133355E-15, -1.224646799147353207E-16, 1.000000000000000000 ) ) ;
#221 = AXIS2_PLACEMENT_3D ( 'NONE', #50, #222, #13 ) ;
#222 = DIRECTION ( 'NONE',  ( 3.491481338843133355E-15, -1.217917285207545432E-16, 1.000000000000000000 ) ) ;
#223 = DATE_AND_TIME ( #31, #213 ) ;
#224 = APPLICATION_CONTEXT ( 'configuration controlled 3d designs of mechanical parts and assemblies' ) ;
#225 = CARTESIAN_POINT ( 'NONE',  ( 6.558357410743857348E-14, 0.0000000000000000000, 18.78388218141501653 ) ) ;
#226 = DIRECTION ( 'NONE',  ( 3.491481338843133355E-15, -0.0000000000000000000, 1.000000000000000000 ) ) ;
#227 = AXIS2_PLACEMENT_3D ( 'NONE', #175, #104, #199 ) ;
#228 = CC_DESIGN_PERSON_AND_ORGANIZATION_ASSIGNMENT ( #82, #79, ( #139 ) ) ;
#229 = EDGE_LOOP ( 'NONE', ( #83 ) ) ;
#230 = FACE_OUTER_BOUND ( 'NONE', #63, .T. ) ;
#231 = CARTESIAN_POINT ( 'NONE',  ( 6.982962677686250933E-16, -2.435834570415085380E-17, 0.1999999999999995393 ) ) ;
#232 = AXIS2_PLACEMENT_3D ( 'NONE', #44, #233, #122 ) ;
#233 = DIRECTION ( 'NONE',  ( 3.491481338843133355E-15, -0.0000000000000000000, 1.000000000000000000 ) ) ;
#234 = FACE_OUTER_BOUND ( 'NONE', #41, .T. ) ;
#235 = CARTESIAN_POINT ( 'NONE',  ( 5.586370142149013368E-14, 0.0000000000000000000, 16.00000000000000000 ) ) ;
#236 = PERSON ( 'UNSPECIFIED', 'UNSPECIFIED', 'UNSPECIFIED', ('UNSPECIFIED'), ('UNSPECIFIED'), ('UNSPECIFIED') ) ;
#237 = CARTESIAN_POINT ( 'NONE',  ( -3.999999999999934275, 0.0000000000000000000, 18.78388218141503074 ) ) ;
#238 = APPLICATION_PROTOCOL_DEFINITION ( 'international standard', 'config_control_design', 1994, #75 ) ;
#239 = CARTESIAN_POINT ( 'NONE',  ( 6.982962677686237128E-16, -3.500000000000000000, 0.1999999999999991229 ) ) ;
#240 = EDGE_CURVE ( 'NONE', #12, #12, #46, .T. ) ;
#241 = DIRECTION ( 'NONE',  ( 1.000000000000000000, 0.0000000000000000000, 0.0000000000000000000 ) ) ;
#242 = CARTESIAN_POINT ( 'NONE',  ( 2.182175836776957779E-13, 3.999999999999991562, 62.49999999999998579 ) ) ;
#243 = APPROVAL ( #148, 'UNSPECIFIED' ) ;
ENDSEC;
END-ISO-10303-21;
