ISO-10303-21;
HEADER;
FILE_DESCRIPTION (( 'STEP AP203' ),
    '1' );
FILE_NAME ('955086.step',
    '2021-11-17T08:26:57',
    ( '' ),
    ( '' ),
    'SwSTEP 2.0',
    'SolidWorks 2019',
    '' );
FILE_SCHEMA (( 'CONFIG_CONTROL_DESIGN' ));
ENDSEC;

DATA;
#1 = APPLICATION_CONTEXT ( 'configuration controlled 3d designs of mechanical parts and assemblies' ) ;
#2 = DIRECTION ( 'NONE',  ( 3.491481338843133355E-15, -1.217917285207545432E-16, 1.000000000000000000 ) ) ;
#3 = FACE_OUTER_BOUND ( 'NONE', #164, .T. ) ;
#4 =( GEOMETRIC_REPRESENTATION_CONTEXT ( 3 ) GLOBAL_UNCERTAINTY_ASSIGNED_CONTEXT ( ( #141 ) ) GLOBAL_UNIT_ASSIGNED_CONTEXT ( ( #54, #173, #72 ) ) REPRESENTATION_CONTEXT ( 'NONE', 'WORKASPACE' ) );
#5 = FACE_OUTER_BOUND ( 'NONE', #61, .T. ) ;
#6 = DIRECTION ( 'NONE',  ( -4.275831445896958607E-31, -1.000000000000000000, -1.224646799147353207E-16 ) ) ;
#7 = CARTESIAN_POINT ( 'NONE',  ( 2.182175836776957779E-13, 3.999999999999991562, 62.49999999999998579 ) ) ;
#8 = CARTESIAN_POINT ( 'NONE',  ( 2.182175836776957779E-13, -7.654042494670956226E-15, 62.49999999999998579 ) ) ;
#9 = ORIENTED_EDGE ( 'NONE', *, *, #226, .F. ) ;
#10 = EDGE_LOOP ( 'NONE', ( #184 ) ) ;
#11 = DATE_AND_TIME ( #138, #33 ) ;
#12 = APPROVAL_DATE_TIME ( #222, #143 ) ;
#13 = ORIENTED_EDGE ( 'NONE', *, *, #204, .T. ) ;
#14 = ORGANIZATION ( 'UNSPECIFIED', 'UNSPECIFIED', '' ) ;
#15 = DIRECTION ( 'NONE',  ( -3.491481338843133355E-15, 1.224646799147353207E-16, -1.000000000000000000 ) ) ;
#16 = DIRECTION ( 'NONE',  ( 1.000000000000000000, 0.0000000000000000000, -3.491481338843133355E-15 ) ) ;
#17 = FACE_BOUND ( 'NONE', #10, .T. ) ;
#18 = ADVANCED_FACE ( 'NONE', ( #49, #126 ), #206, .T. ) ;
#19 = FACE_OUTER_BOUND ( 'NONE', #179, .T. ) ;
#20 = DIRECTION ( 'NONE',  ( 3.491481338843133355E-15, -1.217917285207545432E-16, 1.000000000000000000 ) ) ;
#21 = CARTESIAN_POINT ( 'NONE',  ( 3.500000000000055511, 0.0000000000000000000, 15.99999999999998579 ) ) ;
#22 = AXIS2_PLACEMENT_3D ( 'NONE', #230, #229, #208 ) ;
#23 = COORDINATED_UNIVERSAL_TIME_OFFSET ( 1, 0, .AHEAD. ) ;
#24 = APPLICATION_PROTOCOL_DEFINITION ( 'international standard', 'config_control_design', 1994, #165 ) ;
#25 = DIRECTION ( 'NONE',  ( 0.0000000000000000000, 0.0000000000000000000, 1.000000000000000000 ) ) ;
#26 = DATE_AND_TIME ( #87, #228 ) ;
#27 = ADVANCED_FACE ( 'NONE', ( #144 ), #83, .T. ) ;
#28 = AXIS2_PLACEMENT_3D ( 'NONE', #215, #25, #174 ) ;
#29 = APPROVAL_ROLE ( '' ) ;
#30 = ORIENTED_EDGE ( 'NONE', *, *, #86, .T. ) ;
#31 = CARTESIAN_POINT ( 'NONE',  ( 5.586370142149013368E-14, 0.0000000000000000000, 16.00000000000000000 ) ) ;
#32 = CARTESIAN_POINT ( 'NONE',  ( -8.551662891793915461E-31, 2.999519565323715216E-32, -2.449293598294706414E-16 ) ) ;
#33 = LOCAL_TIME ( 9, 26, 57.00000000000000000, #241 ) ;
#34 = DIRECTION ( 'NONE',  ( -4.126992737972647881E-31, -1.000000000000000000, -1.239088197126290817E-16 ) ) ;
#35 = EDGE_CURVE ( 'NONE', #197, #197, #240, .T. ) ;
#36 = MECHANICAL_CONTEXT ( 'NONE', #165, 'mechanical' ) ;
#37 = PERSON_AND_ORGANIZATION ( #114, #14 ) ;
#38 = DIRECTION ( 'NONE',  ( 4.275831445896958607E-31, 1.000000000000000000, 1.224646799147353207E-16 ) ) ;
#39 = FACE_OUTER_BOUND ( 'NONE', #146, .T. ) ;
#40 = DATE_AND_TIME ( #57, #103 ) ;
#41 = AXIS2_PLACEMENT_3D ( 'NONE', #32, #15, #167 ) ;
#42 = DATE_AND_TIME ( #44, #47 ) ;
#43 = CC_DESIGN_PERSON_AND_ORGANIZATION_ASSIGNMENT ( #121, #64, ( #175 ) ) ;
#44 = CALENDAR_DATE ( 2021, 17, 11 ) ;
#45 = EDGE_LOOP ( 'NONE', ( #242 ) ) ;
#46 = CIRCLE ( 'NONE', #112, 3.499999999999999556 ) ;
#47 = LOCAL_TIME ( 9, 26, 57.00000000000000000, #162 ) ;
#48 = DATE_TIME_ROLE ( 'classification_date' ) ;
#49 = FACE_BOUND ( 'NONE', #186, .T. ) ;
#50 = PLANE ( 'NONE',  #216 ) ;
#51 = DIRECTION ( 'NONE',  ( 1.000000000000000000, 0.0000000000000000000, -3.965082230804130614E-15 ) ) ;
#52 = DIRECTION ( 'NONE',  ( 3.491481338843133355E-15, -0.0000000000000000000, 1.000000000000000000 ) ) ;
#53 = CARTESIAN_POINT ( 'NONE',  ( 6.982962677686250933E-16, -2.435834570415085380E-17, 0.1999999999999995393 ) ) ;
#54 =( LENGTH_UNIT ( ) NAMED_UNIT ( * ) SI_UNIT ( .MILLI., .METRE. ) );
#55 = FACE_OUTER_BOUND ( 'NONE', #85, .T. ) ;
#56 = ADVANCED_FACE ( 'NONE', ( #3, #5 ), #70, .T. ) ;
#57 = CALENDAR_DATE ( 2021, 17, 11 ) ;
#58 = CC_DESIGN_DATE_AND_TIME_ASSIGNMENT ( #11, #183, ( #243 ) ) ;
#59 = CLOSED_SHELL ( 'NONE', ( #209, #18, #124, #239, #178 ) ) ;
#60 = ORIENTED_EDGE ( 'NONE', *, *, #35, .F. ) ;
#61 = EDGE_LOOP ( 'NONE', ( #13 ) ) ;
#62 = PERSON_AND_ORGANIZATION ( #114, #14 ) ;
#63 = EDGE_LOOP ( 'NONE', ( #161 ) ) ;
#64 = PERSON_AND_ORGANIZATION_ROLE ( 'design_supplier' ) ;
#65 = EDGE_LOOP ( 'NONE', ( #159 ) ) ;
#66 = SECURITY_CLASSIFICATION ( '', '', #84 ) ;
#67 = ORIENTED_EDGE ( 'NONE', *, *, #86, .F. ) ;
#68 = CARTESIAN_POINT ( 'NONE',  ( 5.586370142149013368E-14, 2.999519565323712479E-32, 16.00000000000000000 ) ) ;
#69 = CONICAL_SURFACE ( 'NONE', #196, 3.500000000000000000, 0.7853981633974508325 ) ;
#70 = CYLINDRICAL_SURFACE ( 'NONE', #199, 3.499999999999999556 ) ;
#71 = DIRECTION ( 'NONE',  ( -1.000000000000000000, 0.0000000000000000000, 3.469446951953614189E-15 ) ) ;
#72 =( NAMED_UNIT ( * ) SI_UNIT ( $, .STERADIAN. ) SOLID_ANGLE_UNIT ( ) );
#73 = PRODUCT_DEFINITION_SHAPE ( 'NONE', 'NONE',  #243 ) ;
#74 = PERSON_AND_ORGANIZATION ( #114, #14 ) ;
#75 = ADVANCED_FACE ( 'NONE', ( #19 ), #50, .T. ) ;
#76 = AXIS2_PLACEMENT_3D ( 'NONE', #117, #194, #38 ) ;
#77 = CC_DESIGN_APPROVAL ( #153, ( #243 ) ) ;
#78 = VERTEX_POINT ( 'NONE', #154 ) ;
#79 = DIRECTION ( 'NONE',  ( 0.0000000000000000000, 1.000000000000000000, 0.0000000000000000000 ) ) ;
#80 = PERSON_AND_ORGANIZATION_ROLE ( 'creator' ) ;
#81 = AXIS2_PLACEMENT_3D ( 'NONE', #193, #20, #95 ) ;
#82 = APPROVAL_PERSON_ORGANIZATION ( #62, #134, #29 ) ;
#83 = PLANE ( 'NONE',  #41 ) ;
#84 = SECURITY_CLASSIFICATION_LEVEL ( 'unclassified' ) ;
#85 = EDGE_LOOP ( 'NONE', ( #225 ) ) ;
#86 = EDGE_CURVE ( 'NONE', #118, #118, #180, .T. ) ;
#87 = CALENDAR_DATE ( 2021, 17, 11 ) ;
#88 = ORIENTED_EDGE ( 'NONE', *, *, #169, .T. ) ;
#89 = CC_DESIGN_APPROVAL ( #134, ( #175 ) ) ;
#90 = DIRECTION ( 'NONE',  ( 3.491481338843133355E-15, -0.0000000000000000000, 1.000000000000000000 ) ) ;
#91 = CC_DESIGN_PERSON_AND_ORGANIZATION_ASSIGNMENT ( #145, #80, ( #175 ) ) ;
#92 = DIRECTION ( 'NONE',  ( 4.275831445896958607E-31, 1.000000000000000000, 1.224646799147353207E-16 ) ) ;
#93 = FACE_OUTER_BOUND ( 'NONE', #45, .T. ) ;
#94 = DIRECTION ( 'NONE',  ( 3.491481338843133355E-15, -1.224646799147353207E-16, 1.000000000000000000 ) ) ;
#95 = DIRECTION ( 'NONE',  ( -4.126992737972647881E-31, -1.000000000000000000, -1.239088197126290817E-16 ) ) ;
#96 = VERTEX_POINT ( 'NONE', #21 ) ;
#97 = CIRCLE ( 'NONE', #232, 3.499999999999999556 ) ;
#98 = CARTESIAN_POINT ( 'NONE',  ( -2.806541412547378187E-30, -3.299999999999998934, -8.038254082369798178E-16 ) ) ;
#99 = CC_DESIGN_PERSON_AND_ORGANIZATION_ASSIGNMENT ( #37, #198, ( #202 ) ) ;
#100 = CARTESIAN_POINT ( 'NONE',  ( 5.586370142149013368E-14, 0.0000000000000000000, 16.00000000000000000 ) ) ;
#101 = FACE_OUTER_BOUND ( 'NONE', #205, .T. ) ;
#102 = PERSON_AND_ORGANIZATION_ROLE ( 'classification_officer' ) ;
#103 = LOCAL_TIME ( 9, 26, 57.00000000000000000, #23 ) ;
#104 = EDGE_CURVE ( 'NONE', #172, #172, #46, .T. ) ;
#105 = PERSON_AND_ORGANIZATION_ROLE ( 'creator' ) ;
#106 = CIRCLE ( 'NONE', #192, 4.000000000000000000 ) ;
#107 = LOCAL_TIME ( 9, 26, 57.00000000000000000, #163 ) ;
#108 = DIRECTION ( 'NONE',  ( 3.491481338843133355E-15, -1.224646799147353207E-16, 1.000000000000000000 ) ) ;
#109 = CC_DESIGN_PERSON_AND_ORGANIZATION_ASSIGNMENT ( #217, #105, ( #243 ) ) ;
#110 = DIRECTION ( 'NONE',  ( -4.252335473556634944E-31, -1.000000000000000000, -1.217917285207545679E-16 ) ) ;
#111 = PLANE ( 'NONE',  #170 ) ;
#112 = AXIS2_PLACEMENT_3D ( 'NONE', #210, #90, #149 ) ;
#113 = PRODUCT_RELATED_PRODUCT_CATEGORY ( 'detail', '', ( #202 ) ) ;
#114 = PERSON ( 'UNSPECIFIED', 'UNSPECIFIED', 'UNSPECIFIED', ('UNSPECIFIED'), ('UNSPECIFIED'), ('UNSPECIFIED') ) ;
#115 = APPROVAL_STATUS ( 'not_yet_approved' ) ;
#116 = CIRCLE ( 'NONE', #213, 3.999999999999999112 ) ;
#117 = CARTESIAN_POINT ( 'NONE',  ( 0.0000000000000000000, 0.0000000000000000000, 0.0000000000000000000 ) ) ;
#118 = VERTEX_POINT ( 'NONE', #176 ) ;
#119 = APPROVAL_DATE_TIME ( #42, #134 ) ;
#120 = ORIENTED_EDGE ( 'NONE', *, *, #169, .F. ) ;
#121 = PERSON_AND_ORGANIZATION ( #114, #14 ) ;
#122 = EDGE_CURVE ( 'NONE', #136, #136, #106, .T. ) ;
#123 = SHAPE_DEFINITION_REPRESENTATION ( #73, #233 ) ;
#124 = ADVANCED_FACE ( 'NONE', ( #231 ), #111, .F. ) ;
#125 = ORIENTED_EDGE ( 'NONE', *, *, #226, .T. ) ;
#126 = FACE_OUTER_BOUND ( 'NONE', #148, .T. ) ;
#127 = CIRCLE ( 'NONE', #81, 3.500000000000000000 ) ;
#128 = DIRECTION ( 'NONE',  ( 3.491481338843133355E-15, -0.0000000000000000000, 1.000000000000000000 ) ) ;
#129 = CARTESIAN_POINT ( 'NONE',  ( -1.403270706273689094E-30, 4.894964294904146201E-32, -4.019127041184899089E-16 ) ) ;
#130 = FACE_OUTER_BOUND ( 'NONE', #65, .T. ) ;
#131 = MANIFOLD_SOLID_BREP ( 'Corps-Déplacer/Copier1[2]', #156 ) ;
#132 = DIRECTION ( 'NONE',  ( 3.491481338843133355E-15, -1.217917285207545432E-16, 1.000000000000000000 ) ) ;
#133 = MANIFOLD_SOLID_BREP ( 'Corps-Déplacer/Copier1[1]', #59 ) ;
#134 = APPROVAL ( #238, 'UNSPECIFIED' ) ;
#135 = CC_DESIGN_APPROVAL ( #143, ( #66 ) ) ;
#136 = VERTEX_POINT ( 'NONE', #158 ) ;
#137 = CARTESIAN_POINT ( 'NONE',  ( 3.500000000000055511, 0.0000000000000000000, 15.99999999999998579 ) ) ;
#138 = CALENDAR_DATE ( 2021, 17, 11 ) ;
#139 = AXIS2_PLACEMENT_3D ( 'NONE', #211, #207, #188 ) ;
#140 = APPROVAL_ROLE ( '' ) ;
#141 = UNCERTAINTY_MEASURE_WITH_UNIT (LENGTH_MEASURE( 1.000000000000000082E-05 ), #54, 'distance_accuracy_value', 'NONE');
#142 = EDGE_LOOP ( 'NONE', ( #60 ) ) ;
#143 = APPROVAL ( #177, 'UNSPECIFIED' ) ;
#144 = FACE_OUTER_BOUND ( 'NONE', #142, .T. ) ;
#145 = PERSON_AND_ORGANIZATION ( #114, #14 ) ;
#146 = EDGE_LOOP ( 'NONE', ( #221 ) ) ;
#147 = CALENDAR_DATE ( 2021, 17, 11 ) ;
#148 = EDGE_LOOP ( 'NONE', ( #9 ) ) ;
#149 = DIRECTION ( 'NONE',  ( 1.000000000000000000, 0.0000000000000000000, -3.965082230804130614E-15 ) ) ;
#150 = TOROIDAL_SURFACE ( 'NONE', #181, 11.49999999999999822, 8.000000000000000000 ) ;
#151 = DIRECTION ( 'NONE',  ( 3.491481338843133355E-15, -0.0000000000000000000, 1.000000000000000000 ) ) ;
#152 = APPROVAL_PERSON_ORGANIZATION ( #74, #153, #195 ) ;
#153 = APPROVAL ( #115, 'UNSPECIFIED' ) ;
#154 = CARTESIAN_POINT ( 'NONE',  ( 6.982962677686237128E-16, -3.500000000000000000, 0.1999999999999991229 ) ) ;
#155 = DIRECTION ( 'NONE',  ( 1.000000000000000000, 0.0000000000000000000, -3.491481338843133355E-15 ) ) ;
#156 = CLOSED_SHELL ( 'NONE', ( #56, #75, #201, #27 ) ) ;
#157 = DIRECTION ( 'NONE',  ( -3.491481338843133355E-15, 1.224646799147353207E-16, -1.000000000000000000 ) ) ;
#158 = CARTESIAN_POINT ( 'NONE',  ( -3.999999999999934275, 0.0000000000000000000, 18.78388218141503074 ) ) ;
#159 = ORIENTED_EDGE ( 'NONE', *, *, #104, .F. ) ;
#160 = CC_DESIGN_PERSON_AND_ORGANIZATION_ASSIGNMENT ( #224, #102, ( #66 ) ) ;
#161 = ORIENTED_EDGE ( 'NONE', *, *, #104, .T. ) ;
#162 = COORDINATED_UNIVERSAL_TIME_OFFSET ( 1, 0, .AHEAD. ) ;
#163 = COORDINATED_UNIVERSAL_TIME_OFFSET ( 1, 0, .AHEAD. ) ;
#164 = EDGE_LOOP ( 'NONE', ( #120 ) ) ;
#165 = APPLICATION_CONTEXT ( 'configuration controlled 3d designs of mechanical parts and assemblies' ) ;
#166 = CARTESIAN_POINT ( 'NONE',  ( 5.586370142149013368E-14, 2.999519565323712479E-32, 16.00000000000000000 ) ) ;
#167 = DIRECTION ( 'NONE',  ( 4.275831445896958607E-31, 1.000000000000000000, 1.224646799147353207E-16 ) ) ;
#168 = CARTESIAN_POINT ( 'NONE',  ( 6.558357410743857348E-14, 0.0000000000000000000, 18.78388218141501653 ) ) ;
#169 = EDGE_CURVE ( 'NONE', #96, #96, #97, .T. ) ;
#170 = AXIS2_PLACEMENT_3D ( 'NONE', #189, #227, #92 ) ;
#171 = CC_DESIGN_SECURITY_CLASSIFICATION ( #66, ( #175 ) ) ;
#172 = VERTEX_POINT ( 'NONE', #137 ) ;
#173 =( NAMED_UNIT ( * ) PLANE_ANGLE_UNIT ( ) SI_UNIT ( $, .RADIAN. ) );
#174 = DIRECTION ( 'NONE',  ( 1.000000000000000000, 0.0000000000000000000, 0.0000000000000000000 ) ) ;
#175 = PRODUCT_DEFINITION_FORMATION_WITH_SPECIFIED_SOURCE ( 'ANY', '', #202, .NOT_KNOWN. ) ;
#176 = CARTESIAN_POINT ( 'NONE',  ( 2.199633243471174140E-13, 3.499999999999992450, 63.00000000000000000 ) ) ;
#177 = APPROVAL_STATUS ( 'not_yet_approved' ) ;
#178 = ADVANCED_FACE ( 'NONE', ( #130 ), #191, .F. ) ;
#179 = EDGE_LOOP ( 'NONE', ( #88 ) ) ;
#180 = CIRCLE ( 'NONE', #22, 3.500000000000000000 ) ;
#181 = AXIS2_PLACEMENT_3D ( 'NONE', #100, #218, #155 ) ;
#182 = APPROVAL_PERSON_ORGANIZATION ( #185, #143, #140 ) ;
#183 = DATE_TIME_ROLE ( 'creation_date' ) ;
#184 = ORIENTED_EDGE ( 'NONE', *, *, #35, .T. ) ;
#185 = PERSON_AND_ORGANIZATION ( #114, #14 ) ;
#186 = EDGE_LOOP ( 'NONE', ( #30 ) ) ;
#187 = EDGE_LOOP ( 'NONE', ( #67 ) ) ;
#188 = DIRECTION ( 'NONE',  ( 0.0000000000000000000, 1.000000000000000000, 0.0000000000000000000 ) ) ;
#189 = CARTESIAN_POINT ( 'NONE',  ( 2.199633243471174140E-13, 2.624579619658239319E-32, 63.00000000000000000 ) ) ;
#190 = CC_DESIGN_DATE_AND_TIME_ASSIGNMENT ( #26, #48, ( #66 ) ) ;
#191 = PLANE ( 'NONE',  #223 ) ;
#192 = AXIS2_PLACEMENT_3D ( 'NONE', #168, #128, #71 ) ;
#193 = CARTESIAN_POINT ( 'NONE',  ( 6.982962677686250933E-16, -2.435834570415085380E-17, 0.1999999999999995393 ) ) ;
#194 = DIRECTION ( 'NONE',  ( -3.491481338843133355E-15, 1.224646799147353207E-16, -1.000000000000000000 ) ) ;
#195 = APPROVAL_ROLE ( '' ) ;
#196 = AXIS2_PLACEMENT_3D ( 'NONE', #53, #132, #34 ) ;
#197 = VERTEX_POINT ( 'NONE', #98 ) ;
#198 = PERSON_AND_ORGANIZATION_ROLE ( 'design_owner' ) ;
#199 = AXIS2_PLACEMENT_3D ( 'NONE', #214, #151, #16 ) ;
#200 = COORDINATED_UNIVERSAL_TIME_OFFSET ( 1, 0, .AHEAD. ) ;
#201 = ADVANCED_FACE ( 'NONE', ( #17, #93 ), #69, .T. ) ;
#202 = PRODUCT ( '955086', '955086', '', ( #36 ) ) ;
#203 = DESIGN_CONTEXT ( 'detailed design', #1, 'design' ) ;
#204 = EDGE_CURVE ( 'NONE', #78, #78, #127, .T. ) ;
#205 = EDGE_LOOP ( 'NONE', ( #125 ) ) ;
#206 = CONICAL_SURFACE ( 'NONE', #139, 3.999999999999999112, 0.7853981633974331800 ) ;
#207 = DIRECTION ( 'NONE',  ( -3.491481338843133355E-15, 1.224646799147353207E-16, -1.000000000000000000 ) ) ;
#208 = DIRECTION ( 'NONE',  ( 0.0000000000000000000, 1.000000000000000000, 0.0000000000000000000 ) ) ;
#209 = ADVANCED_FACE ( 'NONE', ( #101, #39 ), #235, .T. ) ;
#210 = CARTESIAN_POINT ( 'NONE',  ( 5.586370142149013368E-14, 0.0000000000000000000, 16.00000000000000000 ) ) ;
#211 = CARTESIAN_POINT ( 'NONE',  ( 2.182175836776957779E-13, -7.654042494670956226E-15, 62.49999999999998579 ) ) ;
#212 = DIRECTION ( 'NONE',  ( -4.275831445896958607E-31, -1.000000000000000000, -1.224646799147353207E-16 ) ) ;
#213 = AXIS2_PLACEMENT_3D ( 'NONE', #8, #157, #79 ) ;
#214 = CARTESIAN_POINT ( 'NONE',  ( -6.413747168845438786E-31, 0.0000000000000000000, -1.836970198721029934E-16 ) ) ;
#215 = CARTESIAN_POINT ( 'NONE',  ( 0.0000000000000000000, 0.0000000000000000000, 0.0000000000000000000 ) ) ;
#216 = AXIS2_PLACEMENT_3D ( 'NONE', #68, #94, #212 ) ;
#217 = PERSON_AND_ORGANIZATION ( #114, #14 ) ;
#218 = DIRECTION ( 'NONE',  ( 3.491481338843133355E-15, -0.0000000000000000000, 1.000000000000000000 ) ) ;
#219 = APPROVAL_DATE_TIME ( #40, #153 ) ;
#220 = AXIS2_PLACEMENT_3D ( 'NONE', #129, #2, #110 ) ;
#221 = ORIENTED_EDGE ( 'NONE', *, *, #122, .T. ) ;
#222 = DATE_AND_TIME ( #147, #107 ) ;
#223 = AXIS2_PLACEMENT_3D ( 'NONE', #166, #108, #6 ) ;
#224 = PERSON_AND_ORGANIZATION ( #114, #14 ) ;
#225 = ORIENTED_EDGE ( 'NONE', *, *, #122, .F. ) ;
#226 = EDGE_CURVE ( 'NONE', #234, #234, #116, .T. ) ;
#227 = DIRECTION ( 'NONE',  ( -3.491481338843133355E-15, 1.224646799147353207E-16, -1.000000000000000000 ) ) ;
#228 = LOCAL_TIME ( 9, 26, 57.00000000000000000, #200 ) ;
#229 = DIRECTION ( 'NONE',  ( -3.491481338843133355E-15, 1.224646799147353207E-16, -1.000000000000000000 ) ) ;
#230 = CARTESIAN_POINT ( 'NONE',  ( 2.199633243471174140E-13, -7.715274834628325378E-15, 63.00000000000000000 ) ) ;
#231 = FACE_OUTER_BOUND ( 'NONE', #187, .T. ) ;
#232 = AXIS2_PLACEMENT_3D ( 'NONE', #31, #52, #51 ) ;
#233 = ADVANCED_BREP_SHAPE_REPRESENTATION ( '955086', ( #133, #131, #28 ), #4 ) ;
#234 = VERTEX_POINT ( 'NONE', #7 ) ;
#235 = CYLINDRICAL_SURFACE ( 'NONE', #76, 4.000000000000000000 ) ;
#236 = APPLICATION_PROTOCOL_DEFINITION ( 'international standard', 'config_control_design', 1994, #1 ) ;
#237 = FACE_OUTER_BOUND ( 'NONE', #63, .T. ) ;
#238 = APPROVAL_STATUS ( 'not_yet_approved' ) ;
#239 = ADVANCED_FACE ( 'NONE', ( #55, #237 ), #150, .F. ) ;
#240 = CIRCLE ( 'NONE', #220, 3.299999999999998934 ) ;
#241 = COORDINATED_UNIVERSAL_TIME_OFFSET ( 1, 0, .AHEAD. ) ;
#242 = ORIENTED_EDGE ( 'NONE', *, *, #204, .F. ) ;
#243 = PRODUCT_DEFINITION ( 'UNKNOWN', '', #175, #203 ) ;
ENDSEC;
END-ISO-10303-21;
