ISO-10303-21;
HEADER;
FILE_DESCRIPTION (( 'STEP AP203' ),
    '1' );
FILE_NAME ('955082.step',
    '2021-11-17T08:03:32',
    ( '' ),
    ( '' ),
    'SwSTEP 2.0',
    'SolidWorks 2019',
    '' );
FILE_SCHEMA (( 'CONFIG_CONTROL_DESIGN' ));
ENDSEC;

DATA;
#1 = PERSON_AND_ORGANIZATION_ROLE ( 'classification_officer' ) ;
#2 = ADVANCED_FACE ( 'NONE', ( #125, #197 ), #94, .T. ) ;
#3 = CIRCLE ( 'NONE', #60, 4.000000000000000000 ) ;
#4 = APPROVAL_DATE_TIME ( #89, #67 ) ;
#5 = PERSON_AND_ORGANIZATION_ROLE ( 'creator' ) ;
#6 = CC_DESIGN_DATE_AND_TIME_ASSIGNMENT ( #47, #21, ( #30 ) ) ;
#7 = EDGE_LOOP ( 'NONE', ( #19 ) ) ;
#8 = PERSON_AND_ORGANIZATION ( #40, #78 ) ;
#9 = AXIS2_PLACEMENT_3D ( 'NONE', #83, #96, #41 ) ;
#10 = CC_DESIGN_APPROVAL ( #172, ( #27 ) ) ;
#11 = DIRECTION ( 'NONE',  ( -3.491481338843133355E-15, 1.224646799147353207E-16, -1.000000000000000000 ) ) ;
#12 = EDGE_CURVE ( 'NONE', #135, #135, #34, .T. ) ;
#13 = DIRECTION ( 'NONE',  ( -3.491481338843133355E-15, 1.224646799147353207E-16, -1.000000000000000000 ) ) ;
#14 = DIRECTION ( 'NONE',  ( -3.491481338843133355E-15, 1.224646799147353207E-16, -1.000000000000000000 ) ) ;
#15 = FACE_BOUND ( 'NONE', #211, .T. ) ;
#16 = CC_DESIGN_PERSON_AND_ORGANIZATION_ASSIGNMENT ( #22, #48, ( #105 ) ) ;
#17 = VERTEX_POINT ( 'NONE', #205 ) ;
#18 = FACE_OUTER_BOUND ( 'NONE', #37, .T. ) ;
#19 = ORIENTED_EDGE ( 'NONE', *, *, #218, .F. ) ;
#20 = AXIS2_PLACEMENT_3D ( 'NONE', #68, #61, #112 ) ;
#21 = DATE_TIME_ROLE ( 'creation_date' ) ;
#22 = PERSON_AND_ORGANIZATION ( #40, #78 ) ;
#23 = DIRECTION ( 'NONE',  ( -3.491481338843133355E-15, 1.224646799147353207E-16, -1.000000000000000000 ) ) ;
#24 = FACE_OUTER_BOUND ( 'NONE', #190, .T. ) ;
#25 = CARTESIAN_POINT ( 'NONE',  ( 2.182175836776957779E-13, -7.654042494670956226E-15, 62.49999999999998579 ) ) ;
#26 = DIRECTION ( 'NONE',  ( 3.491481338843133355E-15, -1.224646799147353207E-16, 1.000000000000000000 ) ) ;
#27 = PRODUCT_DEFINITION_FORMATION_WITH_SPECIFIED_SOURCE ( 'ANY', '', #105, .NOT_KNOWN. ) ;
#28 = MANIFOLD_SOLID_BREP ( 'Corps-Déplacer/Copier1[2]', #206 ) ;
#29 = APPROVAL_DATE_TIME ( #124, #210 ) ;
#30 = PRODUCT_DEFINITION ( 'UNKNOWN', '', #27, #110 ) ;
#31 = CALENDAR_DATE ( 2021, 17, 11 ) ;
#32 = ORIENTED_EDGE ( 'NONE', *, *, #12, .F. ) ;
#33 = APPROVAL_ROLE ( '' ) ;
#34 = CIRCLE ( 'NONE', #100, 4.000000000000000000 ) ;
#35 = EDGE_LOOP ( 'NONE', ( #214 ) ) ;
#36 = LOCAL_TIME ( 9, 3, 32.00000000000000000, #215 ) ;
#37 = EDGE_LOOP ( 'NONE', ( #32 ) ) ;
#38 = CALENDAR_DATE ( 2021, 17, 11 ) ;
#39 = ADVANCED_FACE ( 'NONE', ( #216, #55 ), #59, .T. ) ;
#40 = PERSON ( 'UNSPECIFIED', 'UNSPECIFIED', 'UNSPECIFIED', ('UNSPECIFIED'), ('UNSPECIFIED'), ('UNSPECIFIED') ) ;
#41 = DIRECTION ( 'NONE',  ( -4.333342374871280669E-31, -1.000000000000000000, -1.219727444046192488E-16 ) ) ;
#42 = DIRECTION ( 'NONE',  ( -3.491481338843133355E-15, 1.224646799147353207E-16, -1.000000000000000000 ) ) ;
#43 = DIRECTION ( 'NONE',  ( -4.275831445896958607E-31, -1.000000000000000000, -1.224646799147353207E-16 ) ) ;
#44 = VERTEX_POINT ( 'NONE', #166 ) ;
#45 = VERTEX_POINT ( 'NONE', #98 ) ;
#46 = CC_DESIGN_APPROVAL ( #210, ( #30 ) ) ;
#47 = DATE_AND_TIME ( #70, #202 ) ;
#48 = PERSON_AND_ORGANIZATION_ROLE ( 'design_owner' ) ;
#49 = COORDINATED_UNIVERSAL_TIME_OFFSET ( 1, 0, .AHEAD. ) ;
#50 = UNCERTAINTY_MEASURE_WITH_UNIT (LENGTH_MEASURE( 1.000000000000000082E-05 ), #167, 'distance_accuracy_value', 'NONE');
#51 = EDGE_CURVE ( 'NONE', #17, #17, #69, .T. ) ;
#52 = PRODUCT_DEFINITION_SHAPE ( 'NONE', 'NONE',  #30 ) ;
#53 = CONICAL_SURFACE ( 'NONE', #177, 3.999999999999999112, 0.7853981633974331800 ) ;
#54 = PERSON_AND_ORGANIZATION_ROLE ( 'design_supplier' ) ;
#55 = FACE_OUTER_BOUND ( 'NONE', #91, .T. ) ;
#56 = AXIS2_PLACEMENT_3D ( 'NONE', #145, #82, #114 ) ;
#57 = AXIS2_PLACEMENT_3D ( 'NONE', #131, #13, #97 ) ;
#58 = EDGE_CURVE ( 'NONE', #45, #45, #180, .T. ) ;
#59 = CONICAL_SURFACE ( 'NONE', #9, 4.000000000000000000, 0.7853981633974501664 ) ;
#60 = AXIS2_PLACEMENT_3D ( 'NONE', #150, #222, #146 ) ;
#61 = DIRECTION ( 'NONE',  ( -3.491481338843133355E-15, 1.224646799147353207E-16, -1.000000000000000000 ) ) ;
#62 = ADVANCED_BREP_SHAPE_REPRESENTATION ( '955082', ( #71, #28, #185 ), #129 ) ;
#63 = FACE_OUTER_BOUND ( 'NONE', #7, .T. ) ;
#64 = DIRECTION ( 'NONE',  ( 0.0000000000000000000, 1.000000000000000000, 0.0000000000000000000 ) ) ;
#65 = AXIS2_PLACEMENT_3D ( 'NONE', #99, #42, #84 ) ;
#66 = VERTEX_POINT ( 'NONE', #134 ) ;
#67 = APPROVAL ( #138, 'UNSPECIFIED' ) ;
#68 = CARTESIAN_POINT ( 'NONE',  ( 0.0000000000000000000, 0.0000000000000000000, 0.0000000000000000000 ) ) ;
#69 = CIRCLE ( 'NONE', #56, 3.799999999999999378 ) ;
#70 = CALENDAR_DATE ( 2021, 17, 11 ) ;
#71 = MANIFOLD_SOLID_BREP ( 'Corps-Déplacer/Copier1[1]', #79 ) ;
#72 = EDGE_LOOP ( 'NONE', ( #121 ) ) ;
#73 = APPROVAL_DATE_TIME ( #154, #172 ) ;
#74 = CALENDAR_DATE ( 2021, 17, 11 ) ;
#75 = EDGE_LOOP ( 'NONE', ( #139 ) ) ;
#76 = AXIS2_PLACEMENT_3D ( 'NONE', #147, #26, #221 ) ;
#77 = CARTESIAN_POINT ( 'NONE',  ( 0.0000000000000000000, 0.0000000000000000000, 0.0000000000000000000 ) ) ;
#78 = ORGANIZATION ( 'UNSPECIFIED', 'UNSPECIFIED', '' ) ;
#79 = CLOSED_SHELL ( 'NONE', ( #199, #81, #103, #161 ) ) ;
#80 = DIRECTION ( 'NONE',  ( 0.0000000000000000000, 1.000000000000000000, 0.0000000000000000000 ) ) ;
#81 = ADVANCED_FACE ( 'NONE', ( #223, #18 ), #219, .T. ) ;
#82 = DIRECTION ( 'NONE',  ( 3.491481338843133355E-15, -1.217917285207545432E-16, 1.000000000000000000 ) ) ;
#83 = CARTESIAN_POINT ( 'NONE',  ( 6.982962677686242059E-16, -2.435834570415082606E-17, 0.1999999999999993172 ) ) ;
#84 = DIRECTION ( 'NONE',  ( 0.0000000000000000000, 1.000000000000000000, 0.0000000000000000000 ) ) ;
#85 = VERTEX_POINT ( 'NONE', #186 ) ;
#86 = COORDINATED_UNIVERSAL_TIME_OFFSET ( 1, 0, .AHEAD. ) ;
#87 = DATE_TIME_ROLE ( 'classification_date' ) ;
#88 = APPROVAL_PERSON_ORGANIZATION ( #152, #67, #33 ) ;
#89 = DATE_AND_TIME ( #209, #175 ) ;
#90 = PERSON_AND_ORGANIZATION ( #40, #78 ) ;
#91 = EDGE_LOOP ( 'NONE', ( #117 ) ) ;
#92 =( NAMED_UNIT ( * ) SI_UNIT ( $, .STERADIAN. ) SOLID_ANGLE_UNIT ( ) );
#93 = CC_DESIGN_SECURITY_CLASSIFICATION ( #213, ( #27 ) ) ;
#94 = CYLINDRICAL_SURFACE ( 'NONE', #127, 4.000000000000000000 ) ;
#95 = ADVANCED_FACE ( 'NONE', ( #24 ), #203, .T. ) ;
#96 = DIRECTION ( 'NONE',  ( 3.491481338843133355E-15, -1.217917285207545432E-16, 1.000000000000000000 ) ) ;
#97 = DIRECTION ( 'NONE',  ( 4.275831445896958607E-31, 1.000000000000000000, 1.224646799147353207E-16 ) ) ;
#98 = CARTESIAN_POINT ( 'NONE',  ( 5.586370142149013368E-14, 3.999999999999998224, 16.00000000000000000 ) ) ;
#99 = CARTESIAN_POINT ( 'NONE',  ( 5.586370142149013368E-14, -1.959434878635765131E-15, 16.00000000000000000 ) ) ;
#100 = AXIS2_PLACEMENT_3D ( 'NONE', #158, #11, #143 ) ;
#101 = APPROVAL_PERSON_ORGANIZATION ( #90, #172, #173 ) ;
#102 = PERSON_AND_ORGANIZATION ( #40, #78 ) ;
#103 = ADVANCED_FACE ( 'NONE', ( #15, #165 ), #53, .T. ) ;
#104 = EDGE_LOOP ( 'NONE', ( #194 ) ) ;
#105 = PRODUCT ( '955082', '955082', '', ( #208 ) ) ;
#106 = EDGE_LOOP ( 'NONE', ( #155 ) ) ;
#107 =( NAMED_UNIT ( * ) PLANE_ANGLE_UNIT ( ) SI_UNIT ( $, .RADIAN. ) );
#108 = ORIENTED_EDGE ( 'NONE', *, *, #58, .F. ) ;
#109 = DIRECTION ( 'NONE',  ( 4.275831445896958607E-31, 1.000000000000000000, 1.224646799147353207E-16 ) ) ;
#110 = DESIGN_CONTEXT ( 'detailed design', #160, 'design' ) ;
#111 = LOCAL_TIME ( 9, 3, 32.00000000000000000, #86 ) ;
#112 = DIRECTION ( 'NONE',  ( 4.275831445896958607E-31, 1.000000000000000000, 1.224646799147353207E-16 ) ) ;
#113 = DIRECTION ( 'NONE',  ( 3.491481338843133355E-15, -1.224646799147353207E-16, 1.000000000000000000 ) ) ;
#114 = DIRECTION ( 'NONE',  ( -4.252335473556634944E-31, -1.000000000000000000, -1.217917285207545432E-16 ) ) ;
#115 = CARTESIAN_POINT ( 'NONE',  ( 2.182175836776957779E-13, -7.654042494670956226E-15, 62.49999999999998579 ) ) ;
#116 = PERSON_AND_ORGANIZATION ( #40, #78 ) ;
#117 = ORIENTED_EDGE ( 'NONE', *, *, #144, .F. ) ;
#118 = COORDINATED_UNIVERSAL_TIME_OFFSET ( 1, 0, .AHEAD. ) ;
#119 = ORIENTED_EDGE ( 'NONE', *, *, #51, .T. ) ;
#120 = APPROVAL_STATUS ( 'not_yet_approved' ) ;
#121 = ORIENTED_EDGE ( 'NONE', *, *, #144, .T. ) ;
#122 = APPROVAL_STATUS ( 'not_yet_approved' ) ;
#123 = EDGE_LOOP ( 'NONE', ( #188 ) ) ;
#124 = DATE_AND_TIME ( #38, #36 ) ;
#125 = FACE_OUTER_BOUND ( 'NONE', #106, .T. ) ;
#126 = APPROVAL_PERSON_ORGANIZATION ( #116, #210, #170 ) ;
#127 = AXIS2_PLACEMENT_3D ( 'NONE', #77, #174, #109 ) ;
#128 = CC_DESIGN_DATE_AND_TIME_ASSIGNMENT ( #191, #87, ( #213 ) ) ;
#129 =( GEOMETRIC_REPRESENTATION_CONTEXT ( 3 ) GLOBAL_UNCERTAINTY_ASSIGNED_CONTEXT ( ( #50 ) ) GLOBAL_UNIT_ASSIGNED_CONTEXT ( ( #167, #107, #92 ) ) REPRESENTATION_CONTEXT ( 'NONE', 'WORKASPACE' ) );
#130 = FACE_OUTER_BOUND ( 'NONE', #35, .T. ) ;
#131 = CARTESIAN_POINT ( 'NONE',  ( 2.199633243471174140E-13, 2.624579619658239319E-32, 63.00000000000000000 ) ) ;
#132 = CARTESIAN_POINT ( 'NONE',  ( 5.586370142149013368E-14, 3.999999999999998224, 16.00000000000000000 ) ) ;
#133 = ADVANCED_FACE ( 'NONE', ( #178 ), #182, .T. ) ;
#134 = CARTESIAN_POINT ( 'NONE',  ( 6.982962677686225295E-16, -4.000000000000000000, 0.1999999999999988176 ) ) ;
#135 = VERTEX_POINT ( 'NONE', #132 ) ;
#136 = DIRECTION ( 'NONE',  ( 0.0000000000000000000, 0.0000000000000000000, 1.000000000000000000 ) ) ;
#137 = CIRCLE ( 'NONE', #193, 3.999999999999999112 ) ;
#138 = APPROVAL_STATUS ( 'not_yet_approved' ) ;
#139 = ORIENTED_EDGE ( 'NONE', *, *, #51, .F. ) ;
#140 = CARTESIAN_POINT ( 'NONE',  ( 0.0000000000000000000, 0.0000000000000000000, 0.0000000000000000000 ) ) ;
#141 = APPLICATION_PROTOCOL_DEFINITION ( 'international standard', 'config_control_design', 1994, #160 ) ;
#142 = ORIENTED_EDGE ( 'NONE', *, *, #218, .T. ) ;
#143 = DIRECTION ( 'NONE',  ( 0.0000000000000000000, 1.000000000000000000, 0.0000000000000000000 ) ) ;
#144 = EDGE_CURVE ( 'NONE', #66, #66, #3, .T. ) ;
#145 = CARTESIAN_POINT ( 'NONE',  ( -1.615887479951521103E-30, 5.636625551707806507E-32, -4.628085683788671558E-16 ) ) ;
#146 = DIRECTION ( 'NONE',  ( -4.333342374871280669E-31, -1.000000000000000000, -1.219727444046192488E-16 ) ) ;
#147 = CARTESIAN_POINT ( 'NONE',  ( 5.586370142149013368E-14, 2.999519565323712479E-32, 16.00000000000000000 ) ) ;
#148 = APPLICATION_CONTEXT ( 'configuration controlled 3d designs of mechanical parts and assemblies' ) ;
#149 = AXIS2_PLACEMENT_3D ( 'NONE', #162, #14, #184 ) ;
#150 = CARTESIAN_POINT ( 'NONE',  ( 6.982962677686242059E-16, -2.435834570415082606E-17, 0.1999999999999993172 ) ) ;
#151 = DIRECTION ( 'NONE',  ( -3.491481338843133355E-15, 1.224646799147353207E-16, -1.000000000000000000 ) ) ;
#152 = PERSON_AND_ORGANIZATION ( #40, #78 ) ;
#153 = PERSON_AND_ORGANIZATION_ROLE ( 'creator' ) ;
#154 = DATE_AND_TIME ( #74, #111 ) ;
#155 = ORIENTED_EDGE ( 'NONE', *, *, #58, .T. ) ;
#156 = DIRECTION ( 'NONE',  ( 1.000000000000000000, 0.0000000000000000000, 0.0000000000000000000 ) ) ;
#157 = AXIS2_PLACEMENT_3D ( 'NONE', #200, #151, #64 ) ;
#158 = CARTESIAN_POINT ( 'NONE',  ( 5.586370142149013368E-14, -1.959434878635765131E-15, 16.00000000000000000 ) ) ;
#159 = CC_DESIGN_PERSON_AND_ORGANIZATION_ASSIGNMENT ( #168, #5, ( #27 ) ) ;
#160 = APPLICATION_CONTEXT ( 'configuration controlled 3d designs of mechanical parts and assemblies' ) ;
#161 = ADVANCED_FACE ( 'NONE', ( #63 ), #220, .F. ) ;
#162 = CARTESIAN_POINT ( 'NONE',  ( -8.551662891793915461E-31, 2.999519565323715216E-32, -2.449293598294706414E-16 ) ) ;
#163 = CC_DESIGN_PERSON_AND_ORGANIZATION_ASSIGNMENT ( #212, #54, ( #27 ) ) ;
#164 = PLANE ( 'NONE',  #76 ) ;
#165 = FACE_OUTER_BOUND ( 'NONE', #123, .T. ) ;
#166 = CARTESIAN_POINT ( 'NONE',  ( 2.182175836776957779E-13, 3.999999999999991562, 62.49999999999998579 ) ) ;
#167 =( LENGTH_UNIT ( ) NAMED_UNIT ( * ) SI_UNIT ( .MILLI., .METRE. ) );
#168 = PERSON_AND_ORGANIZATION ( #40, #78 ) ;
#169 = EDGE_LOOP ( 'NONE', ( #119 ) ) ;
#170 = APPROVAL_ROLE ( '' ) ;
#171 = CIRCLE ( 'NONE', #157, 3.500000000000000000 ) ;
#172 = APPROVAL ( #120, 'UNSPECIFIED' ) ;
#173 = APPROVAL_ROLE ( '' ) ;
#174 = DIRECTION ( 'NONE',  ( -3.491481338843133355E-15, 1.224646799147353207E-16, -1.000000000000000000 ) ) ;
#175 = LOCAL_TIME ( 9, 3, 32.00000000000000000, #118 ) ;
#176 = PRODUCT_RELATED_PRODUCT_CATEGORY ( 'detail', '', ( #105 ) ) ;
#177 = AXIS2_PLACEMENT_3D ( 'NONE', #115, #23, #181 ) ;
#178 = FACE_OUTER_BOUND ( 'NONE', #75, .T. ) ;
#179 = EDGE_CURVE ( 'NONE', #44, #44, #137, .T. ) ;
#180 = CIRCLE ( 'NONE', #65, 4.000000000000000000 ) ;
#181 = DIRECTION ( 'NONE',  ( 0.0000000000000000000, 1.000000000000000000, 0.0000000000000000000 ) ) ;
#182 = PLANE ( 'NONE',  #149 ) ;
#183 = CC_DESIGN_PERSON_AND_ORGANIZATION_ASSIGNMENT ( #8, #1, ( #213 ) ) ;
#184 = DIRECTION ( 'NONE',  ( 4.275831445896958607E-31, 1.000000000000000000, 1.224646799147353207E-16 ) ) ;
#185 = AXIS2_PLACEMENT_3D ( 'NONE', #140, #136, #156 ) ;
#186 = CARTESIAN_POINT ( 'NONE',  ( 2.199633243471174140E-13, 3.499999999999992450, 63.00000000000000000 ) ) ;
#187 = COORDINATED_UNIVERSAL_TIME_OFFSET ( 1, 0, .AHEAD. ) ;
#188 = ORIENTED_EDGE ( 'NONE', *, *, #179, .F. ) ;
#189 = APPLICATION_PROTOCOL_DEFINITION ( 'international standard', 'config_control_design', 1994, #148 ) ;
#190 = EDGE_LOOP ( 'NONE', ( #108 ) ) ;
#191 = DATE_AND_TIME ( #31, #198 ) ;
#192 = AXIS2_PLACEMENT_3D ( 'NONE', #204, #113, #43 ) ;
#193 = AXIS2_PLACEMENT_3D ( 'NONE', #25, #201, #80 ) ;
#194 = ORIENTED_EDGE ( 'NONE', *, *, #179, .T. ) ;
#195 = SECURITY_CLASSIFICATION_LEVEL ( 'unclassified' ) ;
#196 = CC_DESIGN_PERSON_AND_ORGANIZATION_ASSIGNMENT ( #102, #153, ( #30 ) ) ;
#197 = FACE_OUTER_BOUND ( 'NONE', #72, .T. ) ;
#198 = LOCAL_TIME ( 9, 3, 32.00000000000000000, #187 ) ;
#199 = ADVANCED_FACE ( 'NONE', ( #130 ), #164, .F. ) ;
#200 = CARTESIAN_POINT ( 'NONE',  ( 2.199633243471174140E-13, -7.715274834628325378E-15, 63.00000000000000000 ) ) ;
#201 = DIRECTION ( 'NONE',  ( -3.491481338843133355E-15, 1.224646799147353207E-16, -1.000000000000000000 ) ) ;
#202 = LOCAL_TIME ( 9, 3, 32.00000000000000000, #49 ) ;
#203 = PLANE ( 'NONE',  #192 ) ;
#204 = CARTESIAN_POINT ( 'NONE',  ( 5.586370142149013368E-14, 2.999519565323712479E-32, 16.00000000000000000 ) ) ;
#205 = CARTESIAN_POINT ( 'NONE',  ( -3.231774959903042207E-30, -3.799999999999999378, -9.256171367577343117E-16 ) ) ;
#206 = CLOSED_SHELL ( 'NONE', ( #2, #95, #39, #133 ) ) ;
#207 = CC_DESIGN_APPROVAL ( #67, ( #213 ) ) ;
#208 = MECHANICAL_CONTEXT ( 'NONE', #148, 'mechanical' ) ;
#209 = CALENDAR_DATE ( 2021, 17, 11 ) ;
#210 = APPROVAL ( #122, 'UNSPECIFIED' ) ;
#211 = EDGE_LOOP ( 'NONE', ( #142 ) ) ;
#212 = PERSON_AND_ORGANIZATION ( #40, #78 ) ;
#213 = SECURITY_CLASSIFICATION ( '', '', #195 ) ;
#214 = ORIENTED_EDGE ( 'NONE', *, *, #12, .T. ) ;
#215 = COORDINATED_UNIVERSAL_TIME_OFFSET ( 1, 0, .AHEAD. ) ;
#216 = FACE_BOUND ( 'NONE', #169, .T. ) ;
#217 = SHAPE_DEFINITION_REPRESENTATION ( #52, #62 ) ;
#218 = EDGE_CURVE ( 'NONE', #85, #85, #171, .T. ) ;
#219 = CYLINDRICAL_SURFACE ( 'NONE', #20, 4.000000000000000000 ) ;
#220 = PLANE ( 'NONE',  #57 ) ;
#221 = DIRECTION ( 'NONE',  ( -4.275831445896958607E-31, -1.000000000000000000, -1.224646799147353207E-16 ) ) ;
#222 = DIRECTION ( 'NONE',  ( 3.491481338843133355E-15, -1.217917285207545432E-16, 1.000000000000000000 ) ) ;
#223 = FACE_OUTER_BOUND ( 'NONE', #104, .T. ) ;
ENDSEC;
END-ISO-10303-21;
