ISO-10303-21;
HEADER;
FILE_DESCRIPTION (( 'STEP AP203' ),
    '1' );
FILE_NAME ('955042.step',
    '2021-11-30T09:01:43',
    ( '' ),
    ( '' ),
    'SwSTEP 2.0',
    'SolidWorks 2019',
    '' );
FILE_SCHEMA (( 'CONFIG_CONTROL_DESIGN' ));
ENDSEC;

DATA;
#1 = SECURITY_CLASSIFICATION ( '', '', #18 ) ;
#2 = CLOSED_SHELL ( 'NONE', ( #277, #264, #28, #245, #170, #280, #278, #199 ) ) ;
#3 = DIRECTION ( 'NONE',  ( -3.491481338843133355E-15, 1.224646799147353454E-16, -1.000000000000000000 ) ) ;
#4 = DIRECTION ( 'NONE',  ( -4.275831445896959482E-31, -1.000000000000000000, -1.224646799147353454E-16 ) ) ;
#5 = CC_DESIGN_PERSON_AND_ORGANIZATION_ASSIGNMENT ( #64, #111, ( #39 ) ) ;
#6 = DIRECTION ( 'NONE',  ( -3.491481338843133355E-15, 1.224646799147353454E-16, -1.000000000000000000 ) ) ;
#7 = FACE_BOUND ( 'NONE', #129, .T. ) ;
#8 = DIRECTION ( 'NONE',  ( 3.491481338843133355E-15, -1.224646799147353454E-16, 1.000000000000000000 ) ) ;
#9 = VERTEX_POINT ( 'NONE', #120 ) ;
#10 = ORIENTED_EDGE ( 'NONE', *, *, #296, .T. ) ;
#11 = CARTESIAN_POINT ( 'NONE',  ( 8.728703347107833388E-16, 1.273499999999998744, 0.2500000000000000000 ) ) ;
#12 = EDGE_LOOP ( 'NONE', ( #295 ) ) ;
#13 = CC_DESIGN_PERSON_AND_ORGANIZATION_ASSIGNMENT ( #207, #62, ( #39 ) ) ;
#14 = APPROVAL_STATUS ( 'not_yet_approved' ) ;
#15 = DIRECTION ( 'NONE',  ( 0.0000000000000000000, 0.0000000000000000000, 1.000000000000000000 ) ) ;
#16 = CC_DESIGN_APPROVAL ( #137, ( #39 ) ) ;
#17 = EDGE_CURVE ( 'NONE', #247, #247, #173, .T. ) ;
#18 = SECURITY_CLASSIFICATION_LEVEL ( 'unclassified' ) ;
#19 = PLANE ( 'NONE',  #191 ) ;
#20 = APPROVAL_DATE_TIME ( #231, #137 ) ;
#21 = DIRECTION ( 'NONE',  ( 0.0000000000000000000, 1.000000000000000000, 0.0000000000000000000 ) ) ;
#22 = AXIS2_PLACEMENT_3D ( 'NONE', #285, #142, #176 ) ;
#23 = CARTESIAN_POINT ( 'NONE',  ( 7.935108543721707958E-14, -2.783261411380038722E-15, 22.72705414587988315 ) ) ;
#24 = ADVANCED_FACE ( 'NONE', ( #88 ), #19, .F. ) ;
#25 = AXIS2_PLACEMENT_3D ( 'NONE', #197, #160, #240 ) ;
#26 = CARTESIAN_POINT ( 'NONE',  ( 0.0000000000000000000, 0.0000000000000000000, 0.0000000000000000000 ) ) ;
#27 = DIRECTION ( 'NONE',  ( -3.491481338843133355E-15, 1.224646799147353454E-16, -1.000000000000000000 ) ) ;
#28 = ADVANCED_FACE ( 'NONE', ( #193, #279 ), #65, .T. ) ;
#29 =( NAMED_UNIT ( * ) PLANE_ANGLE_UNIT ( ) SI_UNIT ( $, .RADIAN. ) );
#30 = AXIS2_PLACEMENT_3D ( 'NONE', #49, #140, #241 ) ;
#31 = DIRECTION ( 'NONE',  ( -4.275831445896959482E-31, -1.000000000000000000, -1.224646799147353454E-16 ) ) ;
#32 = CARTESIAN_POINT ( 'NONE',  ( -3.785471652766323589E-31, 1.129162432702594199, -1.084202172485504434E-16 ) ) ;
#33 = ORIENTED_EDGE ( 'NONE', *, *, #235, .T. ) ;
#34 = AXIS2_PLACEMENT_3D ( 'NONE', #85, #216, #93 ) ;
#35 = VERTEX_POINT ( 'NONE', #103 ) ;
#36 = EDGE_LOOP ( 'NONE', ( #98 ) ) ;
#37 = PERSON_AND_ORGANIZATION ( #43, #143 ) ;
#38 = PERSON_AND_ORGANIZATION ( #43, #143 ) ;
#39 = PRODUCT_DEFINITION_FORMATION_WITH_SPECIFIED_SOURCE ( 'ANY', '', #138, .NOT_KNOWN. ) ;
#40 = AXIS2_PLACEMENT_3D ( 'NONE', #273, #214, #46 ) ;
#41 = EDGE_LOOP ( 'NONE', ( #78 ) ) ;
#42 = PERSON_AND_ORGANIZATION ( #43, #143 ) ;
#43 = PERSON ( 'UNSPECIFIED', 'UNSPECIFIED', 'UNSPECIFIED', ('UNSPECIFIED'), ('UNSPECIFIED'), ('UNSPECIFIED') ) ;
#44 = DIRECTION ( 'NONE',  ( -3.491481338843133355E-15, 1.224646799147353454E-16, -1.000000000000000000 ) ) ;
#45 = CALENDAR_DATE ( 2021, 30, 11 ) ;
#46 = DIRECTION ( 'NONE',  ( 0.0000000000000000000, 1.000000000000000000, 0.0000000000000000000 ) ) ;
#47 = AXIS2_PLACEMENT_3D ( 'NONE', #26, #6, #92 ) ;
#48 = ADVANCED_FACE ( 'NONE', ( #218, #165 ), #141, .T. ) ;
#49 = CARTESIAN_POINT ( 'NONE',  ( 8.728703347107827472E-16, -3.061616997868381785E-17, 0.2499999999999998335 ) ) ;
#50 =( GEOMETRIC_REPRESENTATION_CONTEXT ( 3 ) GLOBAL_UNCERTAINTY_ASSIGNED_CONTEXT ( ( #242 ) ) GLOBAL_UNIT_ASSIGNED_CONTEXT ( ( #291, #29, #221 ) ) REPRESENTATION_CONTEXT ( 'NONE', 'WORKASPACE' ) );
#51 = DIRECTION ( 'NONE',  ( 3.491481338843133355E-15, -1.224646799147353454E-16, 1.000000000000000000 ) ) ;
#52 = CARTESIAN_POINT ( 'NONE',  ( 3.491481338843133355E-14, 9.549720416099362635E-33, 10.00000000000000000 ) ) ;
#53 = AXIS2_PLACEMENT_3D ( 'NONE', #187, #237, #281 ) ;
#54 = CARTESIAN_POINT ( 'NONE',  ( 2.129803616694311221E-13, -7.470345474798856659E-15, 61.00000000000000000 ) ) ;
#55 = FACE_OUTER_BOUND ( 'NONE', #36, .T. ) ;
#56 = EDGE_LOOP ( 'NONE', ( #230 ) ) ;
#57 = DIRECTION ( 'NONE',  ( 4.275831445896959482E-31, 1.000000000000000000, 1.224646799147353700E-16 ) ) ;
#58 = EDGE_LOOP ( 'NONE', ( #210 ) ) ;
#59 = CLOSED_SHELL ( 'NONE', ( #24, #164, #48, #262 ) ) ;
#60 = VERTEX_POINT ( 'NONE', #268 ) ;
#61 = EDGE_LOOP ( 'NONE', ( #102 ) ) ;
#62 = PERSON_AND_ORGANIZATION_ROLE ( 'design_supplier' ) ;
#63 = EDGE_LOOP ( 'NONE', ( #33 ) ) ;
#64 = PERSON_AND_ORGANIZATION ( #43, #143 ) ;
#65 = CYLINDRICAL_SURFACE ( 'NONE', #87, 1.049999999999999822 ) ;
#66 = FACE_BOUND ( 'NONE', #41, .T. ) ;
#67 = PRODUCT_RELATED_PRODUCT_CATEGORY ( 'detail', '', ( #138 ) ) ;
#68 = LOCAL_TIME ( 10, 1, 43.00000000000000000, #134 ) ;
#69 = AXIS2_PLACEMENT_3D ( 'NONE', #135, #234, #73 ) ;
#70 = CARTESIAN_POINT ( 'NONE',  ( 6.982962677686266711E-14, -2.449293598294706907E-15, 20.00000000000000000 ) ) ;
#71 = CARTESIAN_POINT ( 'NONE',  ( 0.0000000000000000000, 0.0000000000000000000, 0.0000000000000000000 ) ) ;
#72 = APPROVAL_PERSON_ORGANIZATION ( #233, #137, #105 ) ;
#73 = DIRECTION ( 'NONE',  ( 0.0000000000000000000, 1.000000000000000000, 0.0000000000000000000 ) ) ;
#74 = CYLINDRICAL_SURFACE ( 'NONE', #274, 1.499999999999998224 ) ;
#75 = CARTESIAN_POINT ( 'NONE',  ( 6.982962677686266711E-14, -2.602085213965210642E-15, 20.00000000000000000 ) ) ;
#76 = APPLICATION_CONTEXT ( 'configuration controlled 3d designs of mechanical parts and assemblies' ) ;
#77 = DIRECTION ( 'NONE',  ( 3.491481338843133355E-15, -1.224646799147353454E-16, 1.000000000000000000 ) ) ;
#78 = ORIENTED_EDGE ( 'NONE', *, *, #17, .F. ) ;
#79 = CARTESIAN_POINT ( 'NONE',  ( 3.491481338843133355E-14, 1.273499999999998744, 10.00000000000000000 ) ) ;
#80 = ORIENTED_EDGE ( 'NONE', *, *, #235, .F. ) ;
#81 = DATE_AND_TIME ( #161, #99 ) ;
#82 = EDGE_LOOP ( 'NONE', ( #290 ) ) ;
#83 = CC_DESIGN_DATE_AND_TIME_ASSIGNMENT ( #211, #300, ( #1 ) ) ;
#84 = APPLICATION_PROTOCOL_DEFINITION ( 'international standard', 'config_control_design', 1994, #76 ) ;
#85 = CARTESIAN_POINT ( 'NONE',  ( 7.935108543721707958E-14, -2.783261411380038722E-15, 22.72705414587988315 ) ) ;
#86 = APPROVAL_ROLE ( '' ) ;
#87 = AXIS2_PLACEMENT_3D ( 'NONE', #71, #44, #190 ) ;
#88 = FACE_OUTER_BOUND ( 'NONE', #61, .T. ) ;
#89 = DIRECTION ( 'NONE',  ( 1.000000000000000000, 0.0000000000000000000, 0.0000000000000000000 ) ) ;
#90 = PRODUCT_DEFINITION_SHAPE ( 'NONE', 'NONE',  #159 ) ;
#91 = CARTESIAN_POINT ( 'NONE',  ( 3.491481338843133355E-14, -1.224646799147353454E-15, 10.00000000000000000 ) ) ;
#92 = DIRECTION ( 'NONE',  ( 4.275831445896960358E-31, 1.000000000000000000, 1.224646799147353454E-16 ) ) ;
#93 = DIRECTION ( 'NONE',  ( 0.0000000000000000000, 1.000000000000000000, 0.0000000000000000000 ) ) ;
#94 = CONICAL_SURFACE ( 'NONE', #30, 1.273499999999998744, 0.5235987755982931535 ) ;
#95 = FACE_OUTER_BOUND ( 'NONE', #150, .T. ) ;
#96 = EDGE_CURVE ( 'NONE', #122, #122, #287, .T. ) ;
#97 = DIRECTION ( 'NONE',  ( -4.275831445896959482E-31, -1.000000000000000000, -1.224646799147353454E-16 ) ) ;
#98 = ORIENTED_EDGE ( 'NONE', *, *, #219, .F. ) ;
#99 = LOCAL_TIME ( 10, 1, 43.00000000000000000, #275 ) ;
#100 = CONICAL_SURFACE ( 'NONE', #209, 1.049999999999999156, 0.5235987755982927094 ) ;
#101 = VERTEX_POINT ( 'NONE', #223 ) ;
#102 = ORIENTED_EDGE ( 'NONE', *, *, #17, .T. ) ;
#103 = CARTESIAN_POINT ( 'NONE',  ( 7.104220552055901835E-14, 1.080384493975578009, 20.34729635533384595 ) ) ;
#104 = ORIENTED_EDGE ( 'NONE', *, *, #110, .T. ) ;
#105 = APPROVAL_ROLE ( '' ) ;
#106 = EDGE_LOOP ( 'NONE', ( #248 ) ) ;
#107 = ORIENTED_EDGE ( 'NONE', *, *, #227, .F. ) ;
#108 = CALENDAR_DATE ( 2021, 30, 11 ) ;
#109 = FACE_OUTER_BOUND ( 'NONE', #126, .T. ) ;
#110 = EDGE_CURVE ( 'NONE', #9, #9, #260, .T. ) ;
#111 = PERSON_AND_ORGANIZATION_ROLE ( 'creator' ) ;
#112 = FACE_OUTER_BOUND ( 'NONE', #185, .T. ) ;
#113 = LOCAL_TIME ( 10, 1, 43.00000000000000000, #189 ) ;
#114 = CARTESIAN_POINT ( 'NONE',  ( 8.728703347107827472E-16, -3.061616997868381785E-17, 0.2499999999999998335 ) ) ;
#115 = DIRECTION ( 'NONE',  ( -3.491481338843133355E-15, 1.224646799147353454E-16, -1.000000000000000000 ) ) ;
#116 = CARTESIAN_POINT ( 'NONE',  ( 3.491481338843133355E-14, -1.224646799147353454E-15, 10.00000000000000000 ) ) ;
#117 = CC_DESIGN_PERSON_AND_ORGANIZATION_ASSIGNMENT ( #229, #213, ( #1 ) ) ;
#118 = VERTEX_POINT ( 'NONE', #145 ) ;
#119 = CC_DESIGN_APPROVAL ( #299, ( #159 ) ) ;
#120 = CARTESIAN_POINT ( 'NONE',  ( 6.982962677686266711E-14, 1.049999999999998046, 20.00000000000000000 ) ) ;
#121 = CC_DESIGN_PERSON_AND_ORGANIZATION_ASSIGNMENT ( #38, #272, ( #138 ) ) ;
#122 = VERTEX_POINT ( 'NONE', #147 ) ;
#123 = ORIENTED_EDGE ( 'NONE', *, *, #219, .T. ) ;
#124 = CIRCLE ( 'NONE', #40, 1.200000000000001510 ) ;
#125 = PLANE ( 'NONE',  #257 ) ;
#126 = EDGE_LOOP ( 'NONE', ( #123 ) ) ;
#127 = DATE_TIME_ROLE ( 'creation_date' ) ;
#128 = MECHANICAL_CONTEXT ( 'NONE', #76, 'mechanical' ) ;
#129 = EDGE_LOOP ( 'NONE', ( #250 ) ) ;
#130 = COORDINATED_UNIVERSAL_TIME_OFFSET ( 1, 0, .AHEAD. ) ;
#131 = ORIENTED_EDGE ( 'NONE', *, *, #192, .T. ) ;
#132 = PERSON_AND_ORGANIZATION ( #43, #143 ) ;
#133 = DIRECTION ( 'NONE',  ( 0.0000000000000000000, 1.000000000000000000, 0.0000000000000000000 ) ) ;
#134 = COORDINATED_UNIVERSAL_TIME_OFFSET ( 1, 0, .AHEAD. ) ;
#135 = CARTESIAN_POINT ( 'NONE',  ( 3.626641244514738240E-14, -1.272054512318357685E-15, 10.38711335549165149 ) ) ;
#136 = CIRCLE ( 'NONE', #25, 1.500000000000001332 ) ;
#137 = APPROVAL ( #255, 'UNSPECIFIED' ) ;
#138 = PRODUCT ( '955042', '955042', '', ( #128 ) ) ;
#139 = DIRECTION ( 'NONE',  ( 4.275831445896959482E-31, 1.000000000000000000, 1.224646799147353454E-16 ) ) ;
#140 = DIRECTION ( 'NONE',  ( 3.491481338843133355E-15, -1.224646799147353454E-16, 1.000000000000000000 ) ) ;
#141 = CYLINDRICAL_SURFACE ( 'NONE', #47, 1.273499999999999410 ) ;
#142 = DIRECTION ( 'NONE',  ( -3.491481338843133355E-15, 1.224646799147353454E-16, -1.000000000000000000 ) ) ;
#143 = ORGANIZATION ( 'UNSPECIFIED', 'UNSPECIFIED', '' ) ;
#144 = CONICAL_SURFACE ( 'NONE', #303, 1.499999999999995559, 0.1745329251994266473 ) ;
#145 = CARTESIAN_POINT ( 'NONE',  ( 2.129803616694311221E-13, 1.199999999999993960, 61.00000000000000000 ) ) ;
#146 = DIRECTION ( 'NONE',  ( -3.491481338843133355E-15, 1.224646799147353454E-16, -1.000000000000000000 ) ) ;
#147 = CARTESIAN_POINT ( 'NONE',  ( 3.491481338843133355E-14, 1.273499999999998744, 10.00000000000000000 ) ) ;
#148 = MANIFOLD_SOLID_BREP ( 'Corps-Déplacer/Copier1[1]', #2 ) ;
#149 = APPROVAL_STATUS ( 'not_yet_approved' ) ;
#150 = EDGE_LOOP ( 'NONE', ( #107 ) ) ;
#151 = APPROVAL ( #149, 'UNSPECIFIED' ) ;
#152 = COORDINATED_UNIVERSAL_TIME_OFFSET ( 1, 0, .AHEAD. ) ;
#153 = ADVANCED_BREP_SHAPE_REPRESENTATION ( '955042', ( #148, #258, #195 ), #50 ) ;
#154 = EDGE_CURVE ( 'NONE', #101, #101, #163, .T. ) ;
#155 = DATE_AND_TIME ( #45, #113 ) ;
#156 = EDGE_LOOP ( 'NONE', ( #131 ) ) ;
#157 = APPLICATION_CONTEXT ( 'configuration controlled 3d designs of mechanical parts and assemblies' ) ;
#158 = AXIS2_PLACEMENT_3D ( 'NONE', #91, #3, #133 ) ;
#159 = PRODUCT_DEFINITION ( 'UNKNOWN', '', #39, #283 ) ;
#160 = DIRECTION ( 'NONE',  ( -3.491481338843133355E-15, 1.224646799147353454E-16, -1.000000000000000000 ) ) ;
#161 = CALENDAR_DATE ( 2021, 30, 11 ) ;
#162 = FACE_BOUND ( 'NONE', #206, .T. ) ;
#163 = CIRCLE ( 'NONE', #69, 1.049999999999999156 ) ;
#164 = ADVANCED_FACE ( 'NONE', ( #66, #261 ), #94, .T. ) ;
#165 = FACE_OUTER_BOUND ( 'NONE', #56, .T. ) ;
#166 = CC_DESIGN_DATE_AND_TIME_ASSIGNMENT ( #81, #127, ( #159 ) ) ;
#167 = DIRECTION ( 'NONE',  ( -3.491481338843133355E-15, 1.224646799147353454E-16, -1.000000000000000000 ) ) ;
#168 = CIRCLE ( 'NONE', #158, 1.273500000000000076 ) ;
#169 = FACE_OUTER_BOUND ( 'NONE', #12, .T. ) ;
#170 = ADVANCED_FACE ( 'NONE', ( #162, #109 ), #144, .T. ) ;
#171 = VERTEX_POINT ( 'NONE', #204 ) ;
#172 = DIRECTION ( 'NONE',  ( 0.0000000000000000000, 1.000000000000000000, 0.0000000000000000000 ) ) ;
#173 = CIRCLE ( 'NONE', #53, 1.129162432702594199 ) ;
#174 = DIRECTION ( 'NONE',  ( -3.491481338843133355E-15, 1.224646799147353454E-16, -1.000000000000000000 ) ) ;
#175 = EDGE_LOOP ( 'NONE', ( #180 ) ) ;
#176 = DIRECTION ( 'NONE',  ( 0.0000000000000000000, 1.000000000000000000, 0.0000000000000000000 ) ) ;
#177 = EDGE_LOOP ( 'NONE', ( #104 ) ) ;
#178 = FACE_OUTER_BOUND ( 'NONE', #63, .T. ) ;
#179 = CC_DESIGN_PERSON_AND_ORGANIZATION_ASSIGNMENT ( #42, #252, ( #159 ) ) ;
#180 = ORIENTED_EDGE ( 'NONE', *, *, #196, .T. ) ;
#181 = AXIS2_PLACEMENT_3D ( 'NONE', #54, #174, #267 ) ;
#182 = TOROIDAL_SURFACE ( 'NONE', #222, 3.050000000000000711, 2.000000000000000444 ) ;
#183 = CALENDAR_DATE ( 2021, 30, 11 ) ;
#184 = APPROVAL_ROLE ( '' ) ;
#185 = EDGE_LOOP ( 'NONE', ( #205 ) ) ;
#186 = CALENDAR_DATE ( 2021, 30, 11 ) ;
#187 = CARTESIAN_POINT ( 'NONE',  ( -8.613579890041584783E-31, 3.021237124822957840E-32, -2.467027331412175467E-16 ) ) ;
#188 = AXIS2_PLACEMENT_3D ( 'NONE', #70, #115, #21 ) ;
#189 = COORDINATED_UNIVERSAL_TIME_OFFSET ( 1, 0, .AHEAD. ) ;
#190 = DIRECTION ( 'NONE',  ( 4.275831445896959482E-31, 1.000000000000000000, 1.224646799147353207E-16 ) ) ;
#191 = AXIS2_PLACEMENT_3D ( 'NONE', #259, #51, #4 ) ;
#192 = EDGE_CURVE ( 'NONE', #118, #118, #124, .T. ) ;
#193 = FACE_OUTER_BOUND ( 'NONE', #82, .T. ) ;
#194 = DIRECTION ( 'NONE',  ( 0.0000000000000000000, 1.000000000000000000, 0.0000000000000000000 ) ) ;
#195 = AXIS2_PLACEMENT_3D ( 'NONE', #254, #15, #89 ) ;
#196 = EDGE_CURVE ( 'NONE', #249, #249, #215, .T. ) ;
#197 = CARTESIAN_POINT ( 'NONE',  ( 2.119329172677781757E-13, -7.433606070824434221E-15, 60.69999999999999574 ) ) ;
#198 = FACE_BOUND ( 'NONE', #156, .T. ) ;
#199 = ADVANCED_FACE ( 'NONE', ( #302 ), #276, .F. ) ;
#200 = DIRECTION ( 'NONE',  ( -3.491481338843133355E-15, 1.224646799147353454E-16, -1.000000000000000000 ) ) ;
#201 = FACE_OUTER_BOUND ( 'NONE', #269, .T. ) ;
#202 = APPROVAL_PERSON_ORGANIZATION ( #132, #151, #86 ) ;
#203 = CONICAL_SURFACE ( 'NONE', #181, 1.200000000000001510, 0.7853981633974453924 ) ;
#204 = CARTESIAN_POINT ( 'NONE',  ( 7.935108543721707958E-14, 1.499999999999992673, 22.72705414587988315 ) ) ;
#205 = ORIENTED_EDGE ( 'NONE', *, *, #96, .F. ) ;
#206 = EDGE_LOOP ( 'NONE', ( #232 ) ) ;
#207 = PERSON_AND_ORGANIZATION ( #43, #143 ) ;
#208 = LOCAL_TIME ( 10, 1, 43.00000000000000000, #152 ) ;
#209 = AXIS2_PLACEMENT_3D ( 'NONE', #244, #200, #172 ) ;
#210 = ORIENTED_EDGE ( 'NONE', *, *, #196, .F. ) ;
#211 = DATE_AND_TIME ( #108, #68 ) ;
#212 = DIRECTION ( 'NONE',  ( 4.536937442608333665E-31, 1.000000000000000000, 1.277034360995883911E-16 ) ) ;
#213 = PERSON_AND_ORGANIZATION_ROLE ( 'classification_officer' ) ;
#214 = DIRECTION ( 'NONE',  ( -3.491481338843133355E-15, 1.224646799147353454E-16, -1.000000000000000000 ) ) ;
#215 = CIRCLE ( 'NONE', #271, 1.273499999999998744 ) ;
#216 = DIRECTION ( 'NONE',  ( -3.491481338843133355E-15, 1.224646799147353454E-16, -1.000000000000000000 ) ) ;
#217 = AXIS2_PLACEMENT_3D ( 'NONE', #220, #298, #139 ) ;
#218 = FACE_OUTER_BOUND ( 'NONE', #58, .T. ) ;
#219 = EDGE_CURVE ( 'NONE', #171, #171, #253, .T. ) ;
#220 = CARTESIAN_POINT ( 'NONE',  ( 2.129803616694311221E-13, 8.998558695971049855E-33, 61.00000000000000000 ) ) ;
#221 =( NAMED_UNIT ( * ) SI_UNIT ( $, .STERADIAN. ) SOLID_ANGLE_UNIT ( ) );
#222 = AXIS2_PLACEMENT_3D ( 'NONE', #75, #146, #246 ) ;
#223 = CARTESIAN_POINT ( 'NONE',  ( 3.626641244514738240E-14, 1.049999999999997824, 10.38711335549165149 ) ) ;
#224 = CARTESIAN_POINT ( 'NONE',  ( 0.0000000000000000000, 0.0000000000000000000, 0.0000000000000000000 ) ) ;
#225 = ORIENTED_EDGE ( 'NONE', *, *, #227, .T. ) ;
#226 = DIRECTION ( 'NONE',  ( -3.491481338843133355E-15, 1.224646799147353454E-16, -1.000000000000000000 ) ) ;
#227 = EDGE_CURVE ( 'NONE', #289, #289, #168, .T. ) ;
#228 = APPROVAL_DATE_TIME ( #251, #299 ) ;
#229 = PERSON_AND_ORGANIZATION ( #43, #143 ) ;
#230 = ORIENTED_EDGE ( 'NONE', *, *, #96, .T. ) ;
#231 = DATE_AND_TIME ( #183, #208 ) ;
#232 = ORIENTED_EDGE ( 'NONE', *, *, #296, .F. ) ;
#233 = PERSON_AND_ORGANIZATION ( #43, #143 ) ;
#234 = DIRECTION ( 'NONE',  ( -3.491481338843133355E-15, 1.224646799147353454E-16, -1.000000000000000000 ) ) ;
#235 = EDGE_CURVE ( 'NONE', #60, #60, #136, .T. ) ;
#236 = SHAPE_DEFINITION_REPRESENTATION ( #90, #153 ) ;
#237 = DIRECTION ( 'NONE',  ( -3.491481338843133355E-15, 1.224646799147353454E-16, -1.000000000000000000 ) ) ;
#238 = AXIS2_PLACEMENT_3D ( 'NONE', #116, #167, #194 ) ;
#239 = AXIS2_PLACEMENT_3D ( 'NONE', #286, #77, #31 ) ;
#240 = DIRECTION ( 'NONE',  ( 0.0000000000000000000, 1.000000000000000000, 0.0000000000000000000 ) ) ;
#241 = DIRECTION ( 'NONE',  ( -4.536937442608333665E-31, -1.000000000000000000, -1.277034360995883911E-16 ) ) ;
#242 = UNCERTAINTY_MEASURE_WITH_UNIT (LENGTH_MEASURE( 1.000000000000000082E-05 ), #291, 'distance_accuracy_value', 'NONE');
#243 = CIRCLE ( 'NONE', #22, 1.080384493975580451 ) ;
#244 = CARTESIAN_POINT ( 'NONE',  ( 3.626641244514738240E-14, -1.272054512318357685E-15, 10.38711335549165149 ) ) ;
#245 = ADVANCED_FACE ( 'NONE', ( #169, #263 ), #182, .F. ) ;
#246 = DIRECTION ( 'NONE',  ( 4.275831445896959482E-31, 1.000000000000000000, 1.224646799147353454E-16 ) ) ;
#247 = VERTEX_POINT ( 'NONE', #32 ) ;
#248 = ORIENTED_EDGE ( 'NONE', *, *, #192, .F. ) ;
#249 = VERTEX_POINT ( 'NONE', #11 ) ;
#250 = ORIENTED_EDGE ( 'NONE', *, *, #154, .T. ) ;
#251 = DATE_AND_TIME ( #186, #301 ) ;
#252 = PERSON_AND_ORGANIZATION_ROLE ( 'creator' ) ;
#253 = CIRCLE ( 'NONE', #34, 1.499999999999995559 ) ;
#254 = CARTESIAN_POINT ( 'NONE',  ( 0.0000000000000000000, 0.0000000000000000000, 0.0000000000000000000 ) ) ;
#255 = APPROVAL_STATUS ( 'not_yet_approved' ) ;
#256 = DIRECTION ( 'NONE',  ( 0.0000000000000000000, -1.000000000000000000, 0.0000000000000000000 ) ) ;
#257 = AXIS2_PLACEMENT_3D ( 'NONE', #52, #8, #97 ) ;
#258 = MANIFOLD_SOLID_BREP ( 'Corps-Déplacer/Copier1[2]', #59 ) ;
#259 = CARTESIAN_POINT ( 'NONE',  ( -4.306789945020792391E-31, 1.510618562411478920E-32, -1.233513665706087734E-16 ) ) ;
#260 = CIRCLE ( 'NONE', #188, 1.050000000000000266 ) ;
#261 = FACE_OUTER_BOUND ( 'NONE', #175, .T. ) ;
#262 = ADVANCED_FACE ( 'NONE', ( #112 ), #125, .T. ) ;
#263 = FACE_OUTER_BOUND ( 'NONE', #294, .T. ) ;
#264 = ADVANCED_FACE ( 'NONE', ( #95, #7 ), #100, .T. ) ;
#265 = CC_DESIGN_SECURITY_CLASSIFICATION ( #1, ( #39 ) ) ;
#266 = PLANE ( 'NONE',  #239 ) ;
#267 = DIRECTION ( 'NONE',  ( 0.0000000000000000000, 1.000000000000000000, 0.0000000000000000000 ) ) ;
#268 = CARTESIAN_POINT ( 'NONE',  ( 2.119329172677781757E-13, 1.499999999999994005, 60.69999999999999574 ) ) ;
#269 = EDGE_LOOP ( 'NONE', ( #225 ) ) ;
#270 = CC_DESIGN_APPROVAL ( #151, ( #1 ) ) ;
#271 = AXIS2_PLACEMENT_3D ( 'NONE', #114, #27, #212 ) ;
#272 = PERSON_AND_ORGANIZATION_ROLE ( 'design_owner' ) ;
#273 = CARTESIAN_POINT ( 'NONE',  ( 2.129803616694311221E-13, -7.470345474798856659E-15, 61.00000000000000000 ) ) ;
#274 = AXIS2_PLACEMENT_3D ( 'NONE', #224, #226, #57 ) ;
#275 = COORDINATED_UNIVERSAL_TIME_OFFSET ( 1, 0, .AHEAD. ) ;
#276 = PLANE ( 'NONE',  #217 ) ;
#277 = ADVANCED_FACE ( 'NONE', ( #201 ), #266, .F. ) ;
#278 = ADVANCED_FACE ( 'NONE', ( #284, #198 ), #203, .T. ) ;
#279 = FACE_OUTER_BOUND ( 'NONE', #177, .T. ) ;
#280 = ADVANCED_FACE ( 'NONE', ( #55, #178 ), #74, .T. ) ;
#281 = DIRECTION ( 'NONE',  ( 4.275831445896958607E-31, 1.000000000000000000, 1.224646799147353700E-16 ) ) ;
#282 = DIRECTION ( 'NONE',  ( 3.491481338843133355E-15, -1.224646799147353454E-16, 1.000000000000000000 ) ) ;
#283 = DESIGN_CONTEXT ( 'detailed design', #157, 'design' ) ;
#284 = FACE_OUTER_BOUND ( 'NONE', #288, .T. ) ;
#285 = CARTESIAN_POINT ( 'NONE',  ( 7.104220552055901835E-14, -2.491825135286220620E-15, 20.34729635533384595 ) ) ;
#286 = CARTESIAN_POINT ( 'NONE',  ( 3.491481338843133355E-14, 9.549720416099362635E-33, 10.00000000000000000 ) ) ;
#287 = CIRCLE ( 'NONE', #238, 1.273500000000000076 ) ;
#288 = EDGE_LOOP ( 'NONE', ( #80 ) ) ;
#289 = VERTEX_POINT ( 'NONE', #79 ) ;
#290 = ORIENTED_EDGE ( 'NONE', *, *, #154, .F. ) ;
#291 =( LENGTH_UNIT ( ) NAMED_UNIT ( * ) SI_UNIT ( .MILLI., .METRE. ) );
#292 = APPROVAL_DATE_TIME ( #155, #151 ) ;
#293 = APPROVAL_PERSON_ORGANIZATION ( #37, #299, #184 ) ;
#294 = EDGE_LOOP ( 'NONE', ( #10 ) ) ;
#295 = ORIENTED_EDGE ( 'NONE', *, *, #110, .F. ) ;
#296 = EDGE_CURVE ( 'NONE', #35, #35, #243, .T. ) ;
#297 = APPLICATION_PROTOCOL_DEFINITION ( 'international standard', 'config_control_design', 1994, #157 ) ;
#298 = DIRECTION ( 'NONE',  ( -3.491481338843133355E-15, 1.224646799147353454E-16, -1.000000000000000000 ) ) ;
#299 = APPROVAL ( #14, 'UNSPECIFIED' ) ;
#300 = DATE_TIME_ROLE ( 'classification_date' ) ;
#301 = LOCAL_TIME ( 10, 1, 43.00000000000000000, #130 ) ;
#302 = FACE_OUTER_BOUND ( 'NONE', #106, .T. ) ;
#303 = AXIS2_PLACEMENT_3D ( 'NONE', #23, #282, #256 ) ;
ENDSEC;
END-ISO-10303-21;
