ISO-10303-21;
HEADER;
FILE_DESCRIPTION (( 'STEP AP203' ),
    '1' );
FILE_NAME ('955082.step',
    '2021-11-17T08:26:57',
    ( '' ),
    ( '' ),
    'SwSTEP 2.0',
    'SolidWorks 2019',
    '' );
FILE_SCHEMA (( 'CONFIG_CONTROL_DESIGN' ));
ENDSEC;

DATA;
#1 = ADVANCED_BREP_SHAPE_REPRESENTATION ( '955082', ( #62, #132, #94 ), #104 ) ;
#2 = AXIS2_PLACEMENT_3D ( 'NONE', #45, #181, #202 ) ;
#3 = CC_DESIGN_APPROVAL ( #71, ( #165 ) ) ;
#4 = APPROVAL_ROLE ( '' ) ;
#5 = PRODUCT_DEFINITION ( 'UNKNOWN', '', #165, #16 ) ;
#6 = APPLICATION_CONTEXT ( 'configuration controlled 3d designs of mechanical parts and assemblies' ) ;
#7 = PERSON_AND_ORGANIZATION ( #134, #150 ) ;
#8 = EDGE_LOOP ( 'NONE', ( #44 ) ) ;
#9 = ORIENTED_EDGE ( 'NONE', *, *, #68, .T. ) ;
#10 = ORIENTED_EDGE ( 'NONE', *, *, #201, .T. ) ;
#11 = FACE_OUTER_BOUND ( 'NONE', #147, .T. ) ;
#12 = DIRECTION ( 'NONE',  ( 0.0000000000000000000, 1.000000000000000000, 0.0000000000000000000 ) ) ;
#13 = CYLINDRICAL_SURFACE ( 'NONE', #59, 4.000000000000000000 ) ;
#14 = EDGE_LOOP ( 'NONE', ( #111 ) ) ;
#15 = PRODUCT_DEFINITION_SHAPE ( 'NONE', 'NONE',  #5 ) ;
#16 = DESIGN_CONTEXT ( 'detailed design', #6, 'design' ) ;
#17 = PERSON_AND_ORGANIZATION_ROLE ( 'design_owner' ) ;
#18 = PERSON_AND_ORGANIZATION ( #134, #150 ) ;
#19 = DIRECTION ( 'NONE',  ( -3.491481338843133355E-15, 1.224646799147353207E-16, -1.000000000000000000 ) ) ;
#20 = VERTEX_POINT ( 'NONE', #172 ) ;
#21 = VERTEX_POINT ( 'NONE', #220 ) ;
#22 = CC_DESIGN_APPROVAL ( #163, ( #143 ) ) ;
#23 = CC_DESIGN_DATE_AND_TIME_ASSIGNMENT ( #69, #53, ( #5 ) ) ;
#24 = DATE_AND_TIME ( #175, #73 ) ;
#25 = APPROVAL_DATE_TIME ( #41, #163 ) ;
#26 = EDGE_CURVE ( 'NONE', #21, #21, #51, .T. ) ;
#27 = AXIS2_PLACEMENT_3D ( 'NONE', #46, #184, #72 ) ;
#28 = ORIENTED_EDGE ( 'NONE', *, *, #88, .T. ) ;
#29 = DIRECTION ( 'NONE',  ( -4.333342374871280669E-31, -1.000000000000000000, -1.219727444046192488E-16 ) ) ;
#30 = CC_DESIGN_PERSON_AND_ORGANIZATION_ASSIGNMENT ( #168, #17, ( #138 ) ) ;
#31 = AXIS2_PLACEMENT_3D ( 'NONE', #162, #60, #32 ) ;
#32 = DIRECTION ( 'NONE',  ( -4.275831445896958607E-31, -1.000000000000000000, -1.224646799147353207E-16 ) ) ;
#33 = DIRECTION ( 'NONE',  ( -3.491481338843133355E-15, 1.224646799147353207E-16, -1.000000000000000000 ) ) ;
#34 = DIRECTION ( 'NONE',  ( 4.275831445896958607E-31, 1.000000000000000000, 1.224646799147353207E-16 ) ) ;
#35 = DIRECTION ( 'NONE',  ( 3.491481338843133355E-15, -1.217917285207545432E-16, 1.000000000000000000 ) ) ;
#36 = APPROVAL ( #120, 'UNSPECIFIED' ) ;
#37 = APPROVAL_ROLE ( '' ) ;
#38 = DIRECTION ( 'NONE',  ( 0.0000000000000000000, 1.000000000000000000, 0.0000000000000000000 ) ) ;
#39 = VERTEX_POINT ( 'NONE', #90 ) ;
#40 = ADVANCED_FACE ( 'NONE', ( #11, #49 ), #13, .T. ) ;
#41 = DATE_AND_TIME ( #210, #166 ) ;
#42 = LOCAL_TIME ( 9, 26, 57.00000000000000000, #221 ) ;
#43 = PERSON_AND_ORGANIZATION_ROLE ( 'classification_officer' ) ;
#44 = ORIENTED_EDGE ( 'NONE', *, *, #201, .F. ) ;
#45 = CARTESIAN_POINT ( 'NONE',  ( 2.182175836776957779E-13, -7.654042494670956226E-15, 62.49999999999998579 ) ) ;
#46 = CARTESIAN_POINT ( 'NONE',  ( 0.0000000000000000000, 0.0000000000000000000, 0.0000000000000000000 ) ) ;
#47 = DIRECTION ( 'NONE',  ( -3.491481338843133355E-15, 1.224646799147353207E-16, -1.000000000000000000 ) ) ;
#48 = ADVANCED_FACE ( 'NONE', ( #219 ), #102, .F. ) ;
#49 = FACE_OUTER_BOUND ( 'NONE', #76, .T. ) ;
#50 = CARTESIAN_POINT ( 'NONE',  ( 2.182175836776957779E-13, -7.654042494670956226E-15, 62.49999999999998579 ) ) ;
#51 = CIRCLE ( 'NONE', #207, 3.799999999999999378 ) ;
#52 = PERSON_AND_ORGANIZATION ( #134, #150 ) ;
#53 = DATE_TIME_ROLE ( 'creation_date' ) ;
#54 = CIRCLE ( 'NONE', #171, 4.000000000000000000 ) ;
#55 = ADVANCED_FACE ( 'NONE', ( #164, #130 ), #91, .T. ) ;
#56 = DATE_TIME_ROLE ( 'classification_date' ) ;
#57 = COORDINATED_UNIVERSAL_TIME_OFFSET ( 1, 0, .AHEAD. ) ;
#58 = PERSON_AND_ORGANIZATION ( #134, #150 ) ;
#59 = AXIS2_PLACEMENT_3D ( 'NONE', #64, #101, #34 ) ;
#60 = DIRECTION ( 'NONE',  ( 3.491481338843133355E-15, -1.224646799147353207E-16, 1.000000000000000000 ) ) ;
#61 = ORIENTED_EDGE ( 'NONE', *, *, #78, .F. ) ;
#62 = MANIFOLD_SOLID_BREP ( 'Corps-Déplacer/Copier1[1]', #223 ) ;
#63 = CARTESIAN_POINT ( 'NONE',  ( 6.982962677686242059E-16, -2.435834570415082606E-17, 0.1999999999999993172 ) ) ;
#64 = CARTESIAN_POINT ( 'NONE',  ( 0.0000000000000000000, 0.0000000000000000000, 0.0000000000000000000 ) ) ;
#65 = CARTESIAN_POINT ( 'NONE',  ( -8.551662891793915461E-31, 2.999519565323715216E-32, -2.449293598294706414E-16 ) ) ;
#66 = CIRCLE ( 'NONE', #214, 3.500000000000000000 ) ;
#67 =( NAMED_UNIT ( * ) PLANE_ANGLE_UNIT ( ) SI_UNIT ( $, .RADIAN. ) );
#68 = EDGE_CURVE ( 'NONE', #70, #70, #66, .T. ) ;
#69 = DATE_AND_TIME ( #154, #42 ) ;
#70 = VERTEX_POINT ( 'NONE', #187 ) ;
#71 = APPROVAL ( #190, 'UNSPECIFIED' ) ;
#72 = DIRECTION ( 'NONE',  ( 4.275831445896958607E-31, 1.000000000000000000, 1.224646799147353207E-16 ) ) ;
#73 = LOCAL_TIME ( 9, 26, 57.00000000000000000, #57 ) ;
#74 = LOCAL_TIME ( 9, 26, 57.00000000000000000, #195 ) ;
#75 = PERSON_AND_ORGANIZATION ( #134, #150 ) ;
#76 = EDGE_LOOP ( 'NONE', ( #197 ) ) ;
#77 = ORIENTED_EDGE ( 'NONE', *, *, #179, .F. ) ;
#78 = EDGE_CURVE ( 'NONE', #169, #169, #109, .T. ) ;
#79 = EDGE_LOOP ( 'NONE', ( #81 ) ) ;
#80 = EDGE_LOOP ( 'NONE', ( #149 ) ) ;
#81 = ORIENTED_EDGE ( 'NONE', *, *, #26, .F. ) ;
#82 = LOCAL_TIME ( 9, 26, 57.00000000000000000, #135 ) ;
#83 = EDGE_LOOP ( 'NONE', ( #213 ) ) ;
#84 = CARTESIAN_POINT ( 'NONE',  ( 2.199633243471174140E-13, -7.715274834628325378E-15, 63.00000000000000000 ) ) ;
#85 = CC_DESIGN_PERSON_AND_ORGANIZATION_ASSIGNMENT ( #58, #178, ( #165 ) ) ;
#86 = PERSON_AND_ORGANIZATION_ROLE ( 'creator' ) ;
#87 = CARTESIAN_POINT ( 'NONE',  ( 5.586370142149013368E-14, 2.999519565323712479E-32, 16.00000000000000000 ) ) ;
#88 = EDGE_CURVE ( 'NONE', #89, #89, #204, .T. ) ;
#89 = VERTEX_POINT ( 'NONE', #193 ) ;
#90 = CARTESIAN_POINT ( 'NONE',  ( 5.586370142149013368E-14, 3.999999999999998224, 16.00000000000000000 ) ) ;
#91 = CONICAL_SURFACE ( 'NONE', #209, 3.999999999999999112, 0.7853981633974331800 ) ;
#92 = APPROVAL_DATE_TIME ( #176, #71 ) ;
#93 = EDGE_LOOP ( 'NONE', ( #77 ) ) ;
#94 = AXIS2_PLACEMENT_3D ( 'NONE', #121, #205, #203 ) ;
#95 = APPROVAL_STATUS ( 'not_yet_approved' ) ;
#96 = COORDINATED_UNIVERSAL_TIME_OFFSET ( 1, 0, .AHEAD. ) ;
#97 = DIRECTION ( 'NONE',  ( -3.491481338843133355E-15, 1.224646799147353207E-16, -1.000000000000000000 ) ) ;
#98 = CLOSED_SHELL ( 'NONE', ( #40, #144, #105, #122 ) ) ;
#99 = CARTESIAN_POINT ( 'NONE',  ( 5.586370142149013368E-14, -1.959434878635765131E-15, 16.00000000000000000 ) ) ;
#100 = FACE_OUTER_BOUND ( 'NONE', #110, .T. ) ;
#101 = DIRECTION ( 'NONE',  ( -3.491481338843133355E-15, 1.224646799147353207E-16, -1.000000000000000000 ) ) ;
#102 = PLANE ( 'NONE',  #186 ) ;
#103 = APPROVAL_DATE_TIME ( #189, #36 ) ;
#104 =( GEOMETRIC_REPRESENTATION_CONTEXT ( 3 ) GLOBAL_UNCERTAINTY_ASSIGNED_CONTEXT ( ( #136 ) ) GLOBAL_UNIT_ASSIGNED_CONTEXT ( ( #139, #67, #106 ) ) REPRESENTATION_CONTEXT ( 'NONE', 'WORKASPACE' ) );
#105 = ADVANCED_FACE ( 'NONE', ( #152, #100 ), #133, .T. ) ;
#106 =( NAMED_UNIT ( * ) SI_UNIT ( $, .STERADIAN. ) SOLID_ANGLE_UNIT ( ) );
#107 = MECHANICAL_CONTEXT ( 'NONE', #173, 'mechanical' ) ;
#108 = AXIS2_PLACEMENT_3D ( 'NONE', #148, #216, #29 ) ;
#109 = CIRCLE ( 'NONE', #108, 4.000000000000000000 ) ;
#110 = EDGE_LOOP ( 'NONE', ( #61 ) ) ;
#111 = ORIENTED_EDGE ( 'NONE', *, *, #26, .T. ) ;
#112 = FACE_OUTER_BOUND ( 'NONE', #8, .T. ) ;
#113 = ORIENTED_EDGE ( 'NONE', *, *, #179, .T. ) ;
#114 = CYLINDRICAL_SURFACE ( 'NONE', #27, 4.000000000000000000 ) ;
#115 = DIRECTION ( 'NONE',  ( -3.491481338843133355E-15, 1.224646799147353207E-16, -1.000000000000000000 ) ) ;
#116 = APPROVAL_PERSON_ORGANIZATION ( #119, #71, #37 ) ;
#117 = APPLICATION_PROTOCOL_DEFINITION ( 'international standard', 'config_control_design', 1994, #173 ) ;
#118 = CALENDAR_DATE ( 2021, 17, 11 ) ;
#119 = PERSON_AND_ORGANIZATION ( #134, #150 ) ;
#120 = APPROVAL_STATUS ( 'not_yet_approved' ) ;
#121 = CARTESIAN_POINT ( 'NONE',  ( 0.0000000000000000000, 0.0000000000000000000, 0.0000000000000000000 ) ) ;
#122 = ADVANCED_FACE ( 'NONE', ( #180 ), #129, .T. ) ;
#123 = CALENDAR_DATE ( 2021, 17, 11 ) ;
#124 = PERSON_AND_ORGANIZATION ( #134, #150 ) ;
#125 = EDGE_LOOP ( 'NONE', ( #9 ) ) ;
#126 = DIRECTION ( 'NONE',  ( -3.491481338843133355E-15, 1.224646799147353207E-16, -1.000000000000000000 ) ) ;
#127 = CARTESIAN_POINT ( 'NONE',  ( -1.615887479951521103E-30, 5.636625551707806507E-32, -4.628085683788671558E-16 ) ) ;
#128 = APPROVAL_PERSON_ORGANIZATION ( #75, #163, #4 ) ;
#129 = PLANE ( 'NONE',  #160 ) ;
#130 = FACE_OUTER_BOUND ( 'NONE', #83, .T. ) ;
#131 = FACE_OUTER_BOUND ( 'NONE', #151, .T. ) ;
#132 = MANIFOLD_SOLID_BREP ( 'Corps-Déplacer/Copier1[2]', #98 ) ;
#133 = CONICAL_SURFACE ( 'NONE', #191, 4.000000000000000000, 0.7853981633974501664 ) ;
#134 = PERSON ( 'UNSPECIFIED', 'UNSPECIFIED', 'UNSPECIFIED', ('UNSPECIFIED'), ('UNSPECIFIED'), ('UNSPECIFIED') ) ;
#135 = COORDINATED_UNIVERSAL_TIME_OFFSET ( 1, 0, .AHEAD. ) ;
#136 = UNCERTAINTY_MEASURE_WITH_UNIT (LENGTH_MEASURE( 1.000000000000000082E-05 ), #139, 'distance_accuracy_value', 'NONE');
#137 = DIRECTION ( 'NONE',  ( -4.275831445896958607E-31, -1.000000000000000000, -1.224646799147353207E-16 ) ) ;
#138 = PRODUCT ( '955082', '955082', '', ( #107 ) ) ;
#139 =( LENGTH_UNIT ( ) NAMED_UNIT ( * ) SI_UNIT ( .MILLI., .METRE. ) );
#140 = CC_DESIGN_APPROVAL ( #36, ( #5 ) ) ;
#141 = APPROVAL_ROLE ( '' ) ;
#142 = AXIS2_PLACEMENT_3D ( 'NONE', #99, #126, #12 ) ;
#143 = SECURITY_CLASSIFICATION ( '', '', #212 ) ;
#144 = ADVANCED_FACE ( 'NONE', ( #159 ), #215, .T. ) ;
#145 = PERSON_AND_ORGANIZATION_ROLE ( 'design_supplier' ) ;
#146 = PRODUCT_RELATED_PRODUCT_CATEGORY ( 'detail', '', ( #138 ) ) ;
#147 = EDGE_LOOP ( 'NONE', ( #113 ) ) ;
#148 = CARTESIAN_POINT ( 'NONE',  ( 6.982962677686242059E-16, -2.435834570415082606E-17, 0.1999999999999993172 ) ) ;
#149 = ORIENTED_EDGE ( 'NONE', *, *, #68, .F. ) ;
#150 = ORGANIZATION ( 'UNSPECIFIED', 'UNSPECIFIED', '' ) ;
#151 = EDGE_LOOP ( 'NONE', ( #10 ) ) ;
#152 = FACE_BOUND ( 'NONE', #14, .T. ) ;
#153 = APPLICATION_PROTOCOL_DEFINITION ( 'international standard', 'config_control_design', 1994, #6 ) ;
#154 = CALENDAR_DATE ( 2021, 17, 11 ) ;
#155 = PLANE ( 'NONE',  #170 ) ;
#156 = SHAPE_DEFINITION_REPRESENTATION ( #15, #1 ) ;
#157 = CC_DESIGN_SECURITY_CLASSIFICATION ( #143, ( #165 ) ) ;
#158 = EDGE_LOOP ( 'NONE', ( #28 ) ) ;
#159 = FACE_OUTER_BOUND ( 'NONE', #93, .T. ) ;
#160 = AXIS2_PLACEMENT_3D ( 'NONE', #65, #97, #183 ) ;
#161 = DIRECTION ( 'NONE',  ( -4.333342374871280669E-31, -1.000000000000000000, -1.219727444046192488E-16 ) ) ;
#162 = CARTESIAN_POINT ( 'NONE',  ( 5.586370142149013368E-14, 2.999519565323712479E-32, 16.00000000000000000 ) ) ;
#163 = APPROVAL ( #95, 'UNSPECIFIED' ) ;
#164 = FACE_BOUND ( 'NONE', #125, .T. ) ;
#165 = PRODUCT_DEFINITION_FORMATION_WITH_SPECIFIED_SOURCE ( 'ANY', '', #138, .NOT_KNOWN. ) ;
#166 = LOCAL_TIME ( 9, 26, 57.00000000000000000, #96 ) ;
#167 = DIRECTION ( 'NONE',  ( 0.0000000000000000000, 1.000000000000000000, 0.0000000000000000000 ) ) ;
#168 = PERSON_AND_ORGANIZATION ( #134, #150 ) ;
#169 = VERTEX_POINT ( 'NONE', #194 ) ;
#170 = AXIS2_PLACEMENT_3D ( 'NONE', #87, #222, #137 ) ;
#171 = AXIS2_PLACEMENT_3D ( 'NONE', #174, #19, #38 ) ;
#172 = CARTESIAN_POINT ( 'NONE',  ( 5.586370142149013368E-14, 3.999999999999998224, 16.00000000000000000 ) ) ;
#173 = APPLICATION_CONTEXT ( 'configuration controlled 3d designs of mechanical parts and assemblies' ) ;
#174 = CARTESIAN_POINT ( 'NONE',  ( 5.586370142149013368E-14, -1.959434878635765131E-15, 16.00000000000000000 ) ) ;
#175 = CALENDAR_DATE ( 2021, 17, 11 ) ;
#176 = DATE_AND_TIME ( #123, #74 ) ;
#177 = APPROVAL_PERSON_ORGANIZATION ( #52, #36, #141 ) ;
#178 = PERSON_AND_ORGANIZATION_ROLE ( 'creator' ) ;
#179 = EDGE_CURVE ( 'NONE', #39, #39, #182, .T. ) ;
#180 = FACE_OUTER_BOUND ( 'NONE', #79, .T. ) ;
#181 = DIRECTION ( 'NONE',  ( -3.491481338843133355E-15, 1.224646799147353207E-16, -1.000000000000000000 ) ) ;
#182 = CIRCLE ( 'NONE', #142, 4.000000000000000000 ) ;
#183 = DIRECTION ( 'NONE',  ( 4.275831445896958607E-31, 1.000000000000000000, 1.224646799147353207E-16 ) ) ;
#184 = DIRECTION ( 'NONE',  ( -3.491481338843133355E-15, 1.224646799147353207E-16, -1.000000000000000000 ) ) ;
#185 = CARTESIAN_POINT ( 'NONE',  ( 2.199633243471174140E-13, 2.624579619658239319E-32, 63.00000000000000000 ) ) ;
#186 = AXIS2_PLACEMENT_3D ( 'NONE', #185, #47, #218 ) ;
#187 = CARTESIAN_POINT ( 'NONE',  ( 2.199633243471174140E-13, 3.499999999999992450, 63.00000000000000000 ) ) ;
#188 = CC_DESIGN_PERSON_AND_ORGANIZATION_ASSIGNMENT ( #124, #43, ( #143 ) ) ;
#189 = DATE_AND_TIME ( #118, #82 ) ;
#190 = APPROVAL_STATUS ( 'not_yet_approved' ) ;
#191 = AXIS2_PLACEMENT_3D ( 'NONE', #63, #35, #161 ) ;
#192 = ADVANCED_FACE ( 'NONE', ( #199, #112 ), #114, .T. ) ;
#193 = CARTESIAN_POINT ( 'NONE',  ( 2.182175836776957779E-13, 3.999999999999991562, 62.49999999999998579 ) ) ;
#194 = CARTESIAN_POINT ( 'NONE',  ( 6.982962677686225295E-16, -4.000000000000000000, 0.1999999999999988176 ) ) ;
#195 = COORDINATED_UNIVERSAL_TIME_OFFSET ( 1, 0, .AHEAD. ) ;
#196 = CC_DESIGN_PERSON_AND_ORGANIZATION_ASSIGNMENT ( #7, #145, ( #165 ) ) ;
#197 = ORIENTED_EDGE ( 'NONE', *, *, #78, .T. ) ;
#198 = DIRECTION ( 'NONE',  ( -4.252335473556634944E-31, -1.000000000000000000, -1.217917285207545432E-16 ) ) ;
#199 = FACE_OUTER_BOUND ( 'NONE', #158, .T. ) ;
#200 = DIRECTION ( 'NONE',  ( 3.491481338843133355E-15, -1.217917285207545432E-16, 1.000000000000000000 ) ) ;
#201 = EDGE_CURVE ( 'NONE', #20, #20, #54, .T. ) ;
#202 = DIRECTION ( 'NONE',  ( 0.0000000000000000000, 1.000000000000000000, 0.0000000000000000000 ) ) ;
#203 = DIRECTION ( 'NONE',  ( 1.000000000000000000, 0.0000000000000000000, 0.0000000000000000000 ) ) ;
#204 = CIRCLE ( 'NONE', #2, 3.999999999999999112 ) ;
#205 = DIRECTION ( 'NONE',  ( 0.0000000000000000000, 0.0000000000000000000, 1.000000000000000000 ) ) ;
#206 = CC_DESIGN_DATE_AND_TIME_ASSIGNMENT ( #24, #56, ( #143 ) ) ;
#207 = AXIS2_PLACEMENT_3D ( 'NONE', #127, #200, #198 ) ;
#208 = ADVANCED_FACE ( 'NONE', ( #131 ), #155, .F. ) ;
#209 = AXIS2_PLACEMENT_3D ( 'NONE', #50, #115, #167 ) ;
#210 = CALENDAR_DATE ( 2021, 17, 11 ) ;
#211 = CC_DESIGN_PERSON_AND_ORGANIZATION_ASSIGNMENT ( #18, #86, ( #5 ) ) ;
#212 = SECURITY_CLASSIFICATION_LEVEL ( 'unclassified' ) ;
#213 = ORIENTED_EDGE ( 'NONE', *, *, #88, .F. ) ;
#214 = AXIS2_PLACEMENT_3D ( 'NONE', #84, #33, #217 ) ;
#215 = PLANE ( 'NONE',  #31 ) ;
#216 = DIRECTION ( 'NONE',  ( 3.491481338843133355E-15, -1.217917285207545432E-16, 1.000000000000000000 ) ) ;
#217 = DIRECTION ( 'NONE',  ( 0.0000000000000000000, 1.000000000000000000, 0.0000000000000000000 ) ) ;
#218 = DIRECTION ( 'NONE',  ( 4.275831445896958607E-31, 1.000000000000000000, 1.224646799147353207E-16 ) ) ;
#219 = FACE_OUTER_BOUND ( 'NONE', #80, .T. ) ;
#220 = CARTESIAN_POINT ( 'NONE',  ( -3.231774959903042207E-30, -3.799999999999999378, -9.256171367577343117E-16 ) ) ;
#221 = COORDINATED_UNIVERSAL_TIME_OFFSET ( 1, 0, .AHEAD. ) ;
#222 = DIRECTION ( 'NONE',  ( 3.491481338843133355E-15, -1.224646799147353207E-16, 1.000000000000000000 ) ) ;
#223 = CLOSED_SHELL ( 'NONE', ( #208, #192, #55, #48 ) ) ;
ENDSEC;
END-ISO-10303-21;
