ISO-10303-21;
HEADER;
FILE_DESCRIPTION (( 'STEP AP203' ),
    '1' );
FILE_NAME ('955027.step',
    '2021-11-30T06:45:09',
    ( '' ),
    ( '' ),
    'SwSTEP 2.0',
    'SolidWorks 2019',
    '' );
FILE_SCHEMA (( 'CONFIG_CONTROL_DESIGN' ));
ENDSEC;

DATA;
#1 = ORIENTED_EDGE ( 'NONE', *, *, #63, .F. ) ;
#2 = APPROVAL_STATUS ( 'not_yet_approved' ) ;
#3 = EDGE_CURVE ( 'NONE', #214, #214, #41, .T. ) ;
#4 = PERSON_AND_ORGANIZATION ( #236, #268 ) ;
#5 = DIRECTION ( 'NONE',  ( -3.491481338843133355E-15, 1.224646799147353207E-16, -1.000000000000000000 ) ) ;
#6 = COORDINATED_UNIVERSAL_TIME_OFFSET ( 1, 0, .AHEAD. ) ;
#7 = DIRECTION ( 'NONE',  ( 3.491481338843133355E-15, -1.224646799147353207E-16, 1.000000000000000000 ) ) ;
#8 = AXIS2_PLACEMENT_3D ( 'NONE', #102, #81, #156 ) ;
#9 = EDGE_LOOP ( 'NONE', ( #266 ) ) ;
#10 = ORIENTED_EDGE ( 'NONE', *, *, #174, .F. ) ;
#11 = DIRECTION ( 'NONE',  ( -3.491481338843133355E-15, 1.224646799147353207E-16, -1.000000000000000000 ) ) ;
#12 = EDGE_LOOP ( 'NONE', ( #24 ) ) ;
#13 = MANIFOLD_SOLID_BREP ( 'Corps-Déplacer/Copier1[1]', #134 ) ;
#14 = DIRECTION ( 'NONE',  ( 3.491481338843133355E-15, -1.224646799147353207E-16, 1.000000000000000000 ) ) ;
#15 = AXIS2_PLACEMENT_3D ( 'NONE', #300, #158, #184 ) ;
#16 = DIRECTION ( 'NONE',  ( 0.0000000000000000000, 1.000000000000000000, 0.0000000000000000000 ) ) ;
#17 = EDGE_CURVE ( 'NONE', #20, #20, #159, .T. ) ;
#18 = CARTESIAN_POINT ( 'NONE',  ( -3.168009616763837133E-31, 1.111188192150946174E-32, -9.073540166230775249E-17 ) ) ;
#19 = DIRECTION ( 'NONE',  ( 0.0000000000000000000, 1.000000000000000000, 0.0000000000000000000 ) ) ;
#20 = VERTEX_POINT ( 'NONE', #191 ) ;
#21 = VERTEX_POINT ( 'NONE', #303 ) ;
#22 = CONICAL_SURFACE ( 'NONE', #97, 1.499999999999996669, 0.1745329251994260644 ) ;
#23 = APPROVAL_STATUS ( 'not_yet_approved' ) ;
#24 = ORIENTED_EDGE ( 'NONE', *, *, #3, .T. ) ;
#25 = CARTESIAN_POINT ( 'NONE',  ( 8.728703347107829444E-16, -3.061616997868381785E-17, 0.2499999999999998890 ) ) ;
#26 = EDGE_CURVE ( 'NONE', #64, #64, #94, .T. ) ;
#27 = ORIENTED_EDGE ( 'NONE', *, *, #233, .F. ) ;
#28 = DIRECTION ( 'NONE',  ( 4.275831445896958607E-31, 1.000000000000000000, 1.224646799147353207E-16 ) ) ;
#29 = CIRCLE ( 'NONE', #8, 1.200000000000001732 ) ;
#30 = CC_DESIGN_SECURITY_CLASSIFICATION ( #141, ( #230 ) ) ;
#31 = EDGE_LOOP ( 'NONE', ( #221 ) ) ;
#32 = ORIENTED_EDGE ( 'NONE', *, *, #17, .T. ) ;
#33 = FACE_OUTER_BOUND ( 'NONE', #9, .T. ) ;
#34 = EDGE_CURVE ( 'NONE', #87, #87, #40, .T. ) ;
#35 = PLANE ( 'NONE',  #185 ) ;
#36 = AXIS2_PLACEMENT_3D ( 'NONE', #57, #226, #253 ) ;
#37 = FACE_BOUND ( 'NONE', #100, .T. ) ;
#38 = DIRECTION ( 'NONE',  ( 4.275831445896958607E-31, 1.000000000000000000, 1.224646799147353207E-16 ) ) ;
#39 = DIRECTION ( 'NONE',  ( -4.275831445896958607E-31, -1.000000000000000000, -1.224646799147353207E-16 ) ) ;
#40 = CIRCLE ( 'NONE', #153, 1.060384493975581321 ) ;
#41 = CIRCLE ( 'NONE', #267, 1.500000000000001554 ) ;
#42 = APPROVAL_ROLE ( '' ) ;
#43 = PLANE ( 'NONE',  #50 ) ;
#44 = DIRECTION ( 'NONE',  ( 0.0000000000000000000, 1.000000000000000000, 0.0000000000000000000 ) ) ;
#45 = PERSON_AND_ORGANIZATION ( #236, #268 ) ;
#46 = AXIS2_PLACEMENT_3D ( 'NONE', #48, #5, #28 ) ;
#47 = COORDINATED_UNIVERSAL_TIME_OFFSET ( 1, 0, .AHEAD. ) ;
#48 = CARTESIAN_POINT ( 'NONE',  ( -6.336019233527674267E-31, 2.222376384301892348E-32, -1.814708033246155050E-16 ) ) ;
#49 = CALENDAR_DATE ( 2021, 30, 11 ) ;
#50 = AXIS2_PLACEMENT_3D ( 'NONE', #170, #232, #166 ) ;
#51 = APPROVAL_ROLE ( '' ) ;
#52 = ADVANCED_BREP_SHAPE_REPRESENTATION ( '955027', ( #13, #120, #79 ), #54 ) ;
#53 = DATE_TIME_ROLE ( 'creation_date' ) ;
#54 =( GEOMETRIC_REPRESENTATION_CONTEXT ( 3 ) GLOBAL_UNCERTAINTY_ASSIGNED_CONTEXT ( ( #182 ) ) GLOBAL_UNIT_ASSIGNED_CONTEXT ( ( #114, #189, #234 ) ) REPRESENTATION_CONTEXT ( 'NONE', 'WORKASPACE' ) );
#55 = EDGE_LOOP ( 'NONE', ( #155 ) ) ;
#56 = FACE_OUTER_BOUND ( 'NONE', #291, .T. ) ;
#57 = CARTESIAN_POINT ( 'NONE',  ( 0.0000000000000000000, 0.0000000000000000000, 0.0000000000000000000 ) ) ;
#58 = CC_DESIGN_PERSON_AND_ORGANIZATION_ASSIGNMENT ( #262, #243, ( #230 ) ) ;
#59 = PLANE ( 'NONE',  #259 ) ;
#60 = FACE_OUTER_BOUND ( 'NONE', #224, .T. ) ;
#61 = CARTESIAN_POINT ( 'NONE',  ( 3.584309283006849393E-14, -1.257206458976207066E-15, 10.26586979896181795 ) ) ;
#62 = DIRECTION ( 'NONE',  ( 0.0000000000000000000, 0.0000000000000000000, 1.000000000000000000 ) ) ;
#63 = EDGE_CURVE ( 'NONE', #21, #21, #299, .T. ) ;
#64 = VERTEX_POINT ( 'NONE', #278 ) ;
#65 = DIRECTION ( 'NONE',  ( -3.491481338843133355E-15, 1.224646799147353207E-16, -1.000000000000000000 ) ) ;
#66 = APPROVAL_DATE_TIME ( #280, #69 ) ;
#67 = LOCAL_TIME ( 7, 45, 9.000000000000000000, #72 ) ;
#68 = VERTEX_POINT ( 'NONE', #213 ) ;
#69 = APPROVAL ( #23, 'UNSPECIFIED' ) ;
#70 = AXIS2_PLACEMENT_3D ( 'NONE', #229, #11, #186 ) ;
#71 = APPROVAL_PERSON_ORGANIZATION ( #76, #161, #151 ) ;
#72 = COORDINATED_UNIVERSAL_TIME_OFFSET ( 1, 0, .AHEAD. ) ;
#73 = PERSON_AND_ORGANIZATION_ROLE ( 'design_supplier' ) ;
#74 = ORIENTED_EDGE ( 'NONE', *, *, #34, .T. ) ;
#75 = CC_DESIGN_PERSON_AND_ORGANIZATION_ASSIGNMENT ( #4, #73, ( #230 ) ) ;
#76 = PERSON_AND_ORGANIZATION ( #236, #268 ) ;
#77 = EDGE_LOOP ( 'NONE', ( #32 ) ) ;
#78 = ADVANCED_FACE ( 'NONE', ( #96 ), #227, .T. ) ;
#79 = AXIS2_PLACEMENT_3D ( 'NONE', #173, #62, #279 ) ;
#80 = DESIGN_CONTEXT ( 'detailed design', #98, 'design' ) ;
#81 = DIRECTION ( 'NONE',  ( -3.491481338843133355E-15, 1.224646799147353207E-16, -1.000000000000000000 ) ) ;
#82 = LOCAL_TIME ( 7, 45, 9.000000000000000000, #264 ) ;
#83 = FACE_OUTER_BOUND ( 'NONE', #103, .T. ) ;
#84 = CARTESIAN_POINT ( 'NONE',  ( 0.0000000000000000000, 0.0000000000000000000, 0.0000000000000000000 ) ) ;
#85 = FACE_OUTER_BOUND ( 'NONE', #200, .T. ) ;
#86 = CARTESIAN_POINT ( 'NONE',  ( 7.974710893002744215E-14, -2.797152045634954666E-15, 22.84047978227225073 ) ) ;
#87 = VERTEX_POINT ( 'NONE', #89 ) ;
#88 = ADVANCED_FACE ( 'NONE', ( #294, #157 ), #216, .T. ) ;
#89 = CARTESIAN_POINT ( 'NONE',  ( 7.104220552055900573E-14, 1.060384493975578879, 20.34729635533384240 ) ) ;
#90 = CARTESIAN_POINT ( 'NONE',  ( 3.491481338843133355E-14, -1.224646799147353256E-15, 10.00000000000000000 ) ) ;
#91 = FACE_OUTER_BOUND ( 'NONE', #238, .T. ) ;
#92 = VERTEX_POINT ( 'NONE', #146 ) ;
#93 = EDGE_LOOP ( 'NONE', ( #95 ) ) ;
#94 = CIRCLE ( 'NONE', #46, 1.039162432702589234 ) ;
#95 = ORIENTED_EDGE ( 'NONE', *, *, #3, .F. ) ;
#96 = FACE_OUTER_BOUND ( 'NONE', #241, .T. ) ;
#97 = AXIS2_PLACEMENT_3D ( 'NONE', #133, #14, #272 ) ;
#98 = APPLICATION_CONTEXT ( 'configuration controlled 3d designs of mechanical parts and assemblies' ) ;
#99 = APPROVAL ( #128, 'UNSPECIFIED' ) ;
#100 = EDGE_LOOP ( 'NONE', ( #203 ) ) ;
#101 = ORIENTED_EDGE ( 'NONE', *, *, #17, .F. ) ;
#102 = CARTESIAN_POINT ( 'NONE',  ( 1.745740669421566678E-13, -6.123233995736766085E-15, 50.00000000000000000 ) ) ;
#103 = EDGE_LOOP ( 'NONE', ( #129 ) ) ;
#104 = CIRCLE ( 'NONE', #250, 1.499999999999996669 ) ;
#105 = FACE_OUTER_BOUND ( 'NONE', #124, .T. ) ;
#106 = CARTESIAN_POINT ( 'NONE',  ( 3.584309283006849393E-14, -1.257206458976207066E-15, 10.26586979896181795 ) ) ;
#107 = DIRECTION ( 'NONE',  ( -3.491481338843133355E-15, 1.224646799147353207E-16, -1.000000000000000000 ) ) ;
#108 = DIRECTION ( 'NONE',  ( -3.491481338843133355E-15, 1.224646799147353207E-16, -1.000000000000000000 ) ) ;
#109 = CLOSED_SHELL ( 'NONE', ( #285, #88, #195, #78 ) ) ;
#110 = APPROVAL_PERSON_ORGANIZATION ( #235, #69, #42 ) ;
#111 = CARTESIAN_POINT ( 'NONE',  ( 3.491481338843133355E-14, 1.183499999999993557, 10.00000000000000000 ) ) ;
#112 = ADVANCED_FACE ( 'NONE', ( #163, #269 ), #254, .T. ) ;
#113 = PRODUCT_DEFINITION ( 'UNKNOWN', '', #230, #80 ) ;
#114 =( LENGTH_UNIT ( ) NAMED_UNIT ( * ) SI_UNIT ( .MILLI., .METRE. ) );
#115 = TOROIDAL_SURFACE ( 'NONE', #273, 3.030000000000000693, 2.000000000000000444 ) ;
#116 = COORDINATED_UNIVERSAL_TIME_OFFSET ( 1, 0, .AHEAD. ) ;
#117 = ORIENTED_EDGE ( 'NONE', *, *, #26, .F. ) ;
#118 = DIRECTION ( 'NONE',  ( -3.491481338843133355E-15, 1.224646799147353207E-16, -1.000000000000000000 ) ) ;
#119 = SECURITY_CLASSIFICATION_LEVEL ( 'unclassified' ) ;
#120 = MANIFOLD_SOLID_BREP ( 'Corps-Déplacer/Copier1[2]', #109 ) ;
#121 = CALENDAR_DATE ( 2021, 30, 11 ) ;
#122 = DIRECTION ( 'NONE',  ( 0.0000000000000000000, 1.000000000000000000, 0.0000000000000000000 ) ) ;
#123 = CC_DESIGN_DATE_AND_TIME_ASSIGNMENT ( #219, #53, ( #113 ) ) ;
#124 = EDGE_LOOP ( 'NONE', ( #74 ) ) ;
#125 = AXIS2_PLACEMENT_3D ( 'NONE', #292, #107, #16 ) ;
#126 = CC_DESIGN_APPROVAL ( #69, ( #113 ) ) ;
#127 = DIRECTION ( 'NONE',  ( -3.491481338843133355E-15, 1.224646799147353207E-16, -1.000000000000000000 ) ) ;
#128 = APPROVAL_STATUS ( 'not_yet_approved' ) ;
#129 = ORIENTED_EDGE ( 'NONE', *, *, #220, .F. ) ;
#130 = FACE_OUTER_BOUND ( 'NONE', #179, .T. ) ;
#131 = EDGE_LOOP ( 'NONE', ( #117 ) ) ;
#132 = PRODUCT_RELATED_PRODUCT_CATEGORY ( 'detail', '', ( #188 ) ) ;
#133 = CARTESIAN_POINT ( 'NONE',  ( 7.974710893002744215E-14, -2.797152045634954666E-15, 22.84047978227225073 ) ) ;
#134 = CLOSED_SHELL ( 'NONE', ( #301, #148, #223, #256, #246, #167, #112, #276 ) ) ;
#135 = DIRECTION ( 'NONE',  ( 0.0000000000000000000, 1.000000000000000000, 0.0000000000000000000 ) ) ;
#136 = CARTESIAN_POINT ( 'NONE',  ( 1.745740669421566678E-13, 8.998558695971067645E-33, 50.00000000000000000 ) ) ;
#137 = CYLINDRICAL_SURFACE ( 'NONE', #239, 1.183499999999994223 ) ;
#138 = EDGE_CURVE ( 'NONE', #68, #68, #282, .T. ) ;
#139 = VERTEX_POINT ( 'NONE', #194 ) ;
#140 = AXIS2_PLACEMENT_3D ( 'NONE', #25, #298, #249 ) ;
#141 = SECURITY_CLASSIFICATION ( '', '', #119 ) ;
#142 = APPLICATION_CONTEXT ( 'configuration controlled 3d designs of mechanical parts and assemblies' ) ;
#143 = PERSON_AND_ORGANIZATION_ROLE ( 'design_owner' ) ;
#144 = DIRECTION ( 'NONE',  ( -3.491481338843133355E-15, 1.224646799147353207E-16, -1.000000000000000000 ) ) ;
#145 = CARTESIAN_POINT ( 'NONE',  ( 8.728703347107829444E-16, -3.061616997868381785E-17, 0.2499999999999998890 ) ) ;
#146 = CARTESIAN_POINT ( 'NONE',  ( 6.982962677686266711E-14, 1.029999999999997584, 20.00000000000000000 ) ) ;
#147 = DATE_AND_TIME ( #121, #82 ) ;
#148 = ADVANCED_FACE ( 'NONE', ( #130, #37 ), #205, .T. ) ;
#149 = AXIS2_PLACEMENT_3D ( 'NONE', #162, #7, #168 ) ;
#150 = ORIENTED_EDGE ( 'NONE', *, *, #174, .T. ) ;
#151 = APPROVAL_ROLE ( '' ) ;
#152 = CARTESIAN_POINT ( 'NONE',  ( 1.735266225405037467E-13, -6.086494591762345225E-15, 49.70000000000000284 ) ) ;
#153 = AXIS2_PLACEMENT_3D ( 'NONE', #177, #127, #122 ) ;
#154 = LOCAL_TIME ( 7, 45, 9.000000000000000000, #47 ) ;
#155 = ORIENTED_EDGE ( 'NONE', *, *, #204, .T. ) ;
#156 = DIRECTION ( 'NONE',  ( 0.0000000000000000000, 1.000000000000000000, 0.0000000000000000000 ) ) ;
#157 = FACE_OUTER_BOUND ( 'NONE', #77, .T. ) ;
#158 = DIRECTION ( 'NONE',  ( -3.491481338843133355E-15, 1.224646799147353207E-16, -1.000000000000000000 ) ) ;
#159 = CIRCLE ( 'NONE', #287, 1.183499999999993557 ) ;
#160 = DIRECTION ( 'NONE',  ( -3.491481338843133355E-15, 1.224646799147353207E-16, -1.000000000000000000 ) ) ;
#161 = APPROVAL ( #2, 'UNSPECIFIED' ) ;
#162 = CARTESIAN_POINT ( 'NONE',  ( 3.491481338843133355E-14, 8.874828513901484837E-33, 10.00000000000000000 ) ) ;
#163 = FACE_OUTER_BOUND ( 'NONE', #93, .T. ) ;
#164 = DIRECTION ( 'NONE',  ( -3.491481338843133355E-15, 1.224646799147353207E-16, -1.000000000000000000 ) ) ;
#165 = AXIS2_PLACEMENT_3D ( 'NONE', #61, #208, #210 ) ;
#166 = DIRECTION ( 'NONE',  ( -4.275831445896958607E-31, -1.000000000000000000, -1.224646799147353207E-16 ) ) ;
#167 = ADVANCED_FACE ( 'NONE', ( #85, #252 ), #222, .T. ) ;
#168 = DIRECTION ( 'NONE',  ( -4.275831445896958607E-31, -1.000000000000000000, -1.224646799147353207E-16 ) ) ;
#169 = VERTEX_POINT ( 'NONE', #211 ) ;
#170 = CARTESIAN_POINT ( 'NONE',  ( 3.491481338843133355E-14, 8.874828513901484837E-33, 10.00000000000000000 ) ) ;
#171 = PERSON_AND_ORGANIZATION ( #236, #268 ) ;
#172 = CIRCLE ( 'NONE', #125, 1.183499999999994889 ) ;
#173 = CARTESIAN_POINT ( 'NONE',  ( 0.0000000000000000000, 0.0000000000000000000, 0.0000000000000000000 ) ) ;
#174 = EDGE_CURVE ( 'NONE', #258, #258, #172, .T. ) ;
#175 = DIRECTION ( 'NONE',  ( 0.0000000000000000000, 1.000000000000000000, 0.0000000000000000000 ) ) ;
#176 = DATE_TIME_ROLE ( 'classification_date' ) ;
#177 = CARTESIAN_POINT ( 'NONE',  ( 7.104220552055900573E-14, -2.491825135286219437E-15, 20.34729635533384240 ) ) ;
#178 = SHAPE_DEFINITION_REPRESENTATION ( #271, #52 ) ;
#179 = EDGE_LOOP ( 'NONE', ( #10 ) ) ;
#180 = ORIENTED_EDGE ( 'NONE', *, *, #220, .T. ) ;
#181 = FACE_OUTER_BOUND ( 'NONE', #55, .T. ) ;
#182 = UNCERTAINTY_MEASURE_WITH_UNIT (LENGTH_MEASURE( 1.000000000000000082E-05 ), #114, 'distance_accuracy_value', 'NONE');
#183 = DIRECTION ( 'NONE',  ( -3.491481338843133355E-15, 1.224646799147353207E-16, -1.000000000000000000 ) ) ;
#184 = DIRECTION ( 'NONE',  ( 4.275831445896959482E-31, 1.000000000000000000, 1.224646799147353207E-16 ) ) ;
#185 = AXIS2_PLACEMENT_3D ( 'NONE', #136, #108, #207 ) ;
#186 = DIRECTION ( 'NONE',  ( 0.0000000000000000000, 1.000000000000000000, 0.0000000000000000000 ) ) ;
#187 = FACE_OUTER_BOUND ( 'NONE', #197, .T. ) ;
#188 = PRODUCT ( '955027', '955027', '', ( #212 ) ) ;
#189 =( NAMED_UNIT ( * ) PLANE_ANGLE_UNIT ( ) SI_UNIT ( $, .RADIAN. ) );
#190 = AXIS2_PLACEMENT_3D ( 'NONE', #90, #118, #175 ) ;
#191 = CARTESIAN_POINT ( 'NONE',  ( 8.728703347107835360E-16, 1.183499999999993557, 0.2500000000000000555 ) ) ;
#192 = CALENDAR_DATE ( 2021, 30, 11 ) ;
#193 = CC_DESIGN_PERSON_AND_ORGANIZATION_ASSIGNMENT ( #198, #261, ( #141 ) ) ;
#194 = CARTESIAN_POINT ( 'NONE',  ( 1.745740669421566678E-13, 1.199999999999995515, 50.00000000000000000 ) ) ;
#195 = ADVANCED_FACE ( 'NONE', ( #56, #187 ), #137, .T. ) ;
#196 = PERSON_AND_ORGANIZATION ( #236, #268 ) ;
#197 = EDGE_LOOP ( 'NONE', ( #265 ) ) ;
#198 = PERSON_AND_ORGANIZATION ( #236, #268 ) ;
#199 = CIRCLE ( 'NONE', #70, 1.029999999999999805 ) ;
#200 = EDGE_LOOP ( 'NONE', ( #27 ) ) ;
#201 = ORIENTED_EDGE ( 'NONE', *, *, #138, .F. ) ;
#202 = DIRECTION ( 'NONE',  ( -3.491481338843133355E-15, 1.224646799147353207E-16, -1.000000000000000000 ) ) ;
#203 = ORIENTED_EDGE ( 'NONE', *, *, #138, .T. ) ;
#204 = EDGE_CURVE ( 'NONE', #92, #92, #199, .T. ) ;
#205 = CONICAL_SURFACE ( 'NONE', #209, 1.029999999999998916, 0.5235987755982963732 ) ;
#206 = CC_DESIGN_PERSON_AND_ORGANIZATION_ASSIGNMENT ( #45, #143, ( #188 ) ) ;
#207 = DIRECTION ( 'NONE',  ( 4.275831445896958607E-31, 1.000000000000000000, 1.224646799147353207E-16 ) ) ;
#208 = DIRECTION ( 'NONE',  ( -3.491481338843133355E-15, 1.224646799147353207E-16, -1.000000000000000000 ) ) ;
#209 = AXIS2_PLACEMENT_3D ( 'NONE', #106, #164, #135 ) ;
#210 = DIRECTION ( 'NONE',  ( 0.0000000000000000000, 1.000000000000000000, 0.0000000000000000000 ) ) ;
#211 = CARTESIAN_POINT ( 'NONE',  ( 7.974710893002744215E-14, 1.499999999999994005, 22.84047978227225073 ) ) ;
#212 = MECHANICAL_CONTEXT ( 'NONE', #142, 'mechanical' ) ;
#213 = CARTESIAN_POINT ( 'NONE',  ( 3.584309283006849393E-14, 1.029999999999997806, 10.26586979896181795 ) ) ;
#214 = VERTEX_POINT ( 'NONE', #283 ) ;
#215 = EDGE_LOOP ( 'NONE', ( #180 ) ) ;
#216 = CONICAL_SURFACE ( 'NONE', #140, 1.183499999999993557, 0.5235987755982925984 ) ;
#217 = CC_DESIGN_DATE_AND_TIME_ASSIGNMENT ( #290, #176, ( #141 ) ) ;
#218 = EDGE_LOOP ( 'NONE', ( #247 ) ) ;
#219 = DATE_AND_TIME ( #288, #154 ) ;
#220 = EDGE_CURVE ( 'NONE', #139, #139, #29, .T. ) ;
#221 = ORIENTED_EDGE ( 'NONE', *, *, #34, .F. ) ;
#222 = CYLINDRICAL_SURFACE ( 'NONE', #36, 1.499999999999999112 ) ;
#223 = ADVANCED_FACE ( 'NONE', ( #274, #181 ), #248, .T. ) ;
#224 = EDGE_LOOP ( 'NONE', ( #244 ) ) ;
#225 = CARTESIAN_POINT ( 'NONE',  ( 1.745740669421566678E-13, -6.123233995736766085E-15, 50.00000000000000000 ) ) ;
#226 = DIRECTION ( 'NONE',  ( -3.491481338843133355E-15, 1.224646799147353207E-16, -1.000000000000000000 ) ) ;
#227 = PLANE ( 'NONE',  #149 ) ;
#228 = FACE_OUTER_BOUND ( 'NONE', #218, .T. ) ;
#229 = CARTESIAN_POINT ( 'NONE',  ( 6.982962677686266711E-14, -2.449293598294706513E-15, 20.00000000000000000 ) ) ;
#230 = PRODUCT_DEFINITION_FORMATION_WITH_SPECIFIED_SOURCE ( 'ANY', '', #188, .NOT_KNOWN. ) ;
#231 = APPLICATION_PROTOCOL_DEFINITION ( 'international standard', 'config_control_design', 1994, #98 ) ;
#232 = DIRECTION ( 'NONE',  ( 3.491481338843133355E-15, -1.224646799147353207E-16, 1.000000000000000000 ) ) ;
#233 = EDGE_CURVE ( 'NONE', #169, #169, #104, .T. ) ;
#234 =( NAMED_UNIT ( * ) SI_UNIT ( $, .STERADIAN. ) SOLID_ANGLE_UNIT ( ) );
#235 = PERSON_AND_ORGANIZATION ( #236, #268 ) ;
#236 = PERSON ( 'UNSPECIFIED', 'UNSPECIFIED', 'UNSPECIFIED', ('UNSPECIFIED'), ('UNSPECIFIED'), ('UNSPECIFIED') ) ;
#237 = APPROVAL_DATE_TIME ( #147, #99 ) ;
#238 = EDGE_LOOP ( 'NONE', ( #150 ) ) ;
#239 = AXIS2_PLACEMENT_3D ( 'NONE', #84, #160, #38 ) ;
#240 = CALENDAR_DATE ( 2021, 30, 11 ) ;
#241 = EDGE_LOOP ( 'NONE', ( #1 ) ) ;
#242 = CC_DESIGN_PERSON_AND_ORGANIZATION_ASSIGNMENT ( #171, #260, ( #113 ) ) ;
#243 = PERSON_AND_ORGANIZATION_ROLE ( 'creator' ) ;
#244 = ORIENTED_EDGE ( 'NONE', *, *, #204, .F. ) ;
#245 = APPROVAL_PERSON_ORGANIZATION ( #196, #99, #51 ) ;
#246 = ADVANCED_FACE ( 'NONE', ( #251, #33 ), #22, .T. ) ;
#247 = ORIENTED_EDGE ( 'NONE', *, *, #26, .T. ) ;
#248 = CYLINDRICAL_SURFACE ( 'NONE', #15, 1.029999999999999361 ) ;
#249 = DIRECTION ( 'NONE',  ( -4.881951696799103467E-31, -1.000000000000000000, -1.374147240159075190E-16 ) ) ;
#250 = AXIS2_PLACEMENT_3D ( 'NONE', #86, #297, #19 ) ;
#251 = FACE_BOUND ( 'NONE', #31, .T. ) ;
#252 = FACE_OUTER_BOUND ( 'NONE', #12, .T. ) ;
#253 = DIRECTION ( 'NONE',  ( 4.275831445896958607E-31, 1.000000000000000000, 1.224646799147353454E-16 ) ) ;
#254 = CONICAL_SURFACE ( 'NONE', #293, 1.200000000000001732, 0.7853981633974453924 ) ;
#255 = LOCAL_TIME ( 7, 45, 9.000000000000000000, #6 ) ;
#256 = ADVANCED_FACE ( 'NONE', ( #60, #105 ), #115, .F. ) ;
#257 = APPLICATION_PROTOCOL_DEFINITION ( 'international standard', 'config_control_design', 1994, #142 ) ;
#258 = VERTEX_POINT ( 'NONE', #111 ) ;
#259 = AXIS2_PLACEMENT_3D ( 'NONE', #18, #302, #39 ) ;
#260 = PERSON_AND_ORGANIZATION_ROLE ( 'creator' ) ;
#261 = PERSON_AND_ORGANIZATION_ROLE ( 'classification_officer' ) ;
#262 = PERSON_AND_ORGANIZATION ( #236, #268 ) ;
#263 = APPROVAL_DATE_TIME ( #286, #161 ) ;
#264 = COORDINATED_UNIVERSAL_TIME_OFFSET ( 1, 0, .AHEAD. ) ;
#265 = ORIENTED_EDGE ( 'NONE', *, *, #63, .T. ) ;
#266 = ORIENTED_EDGE ( 'NONE', *, *, #233, .T. ) ;
#267 = AXIS2_PLACEMENT_3D ( 'NONE', #152, #144, #44 ) ;
#268 = ORGANIZATION ( 'UNSPECIFIED', 'UNSPECIFIED', '' ) ;
#269 = FACE_BOUND ( 'NONE', #215, .T. ) ;
#270 = DIRECTION ( 'NONE',  ( 4.275831445896958607E-31, 1.000000000000000000, 1.224646799147353207E-16 ) ) ;
#271 = PRODUCT_DEFINITION_SHAPE ( 'NONE', 'NONE',  #113 ) ;
#272 = DIRECTION ( 'NONE',  ( 0.0000000000000000000, -1.000000000000000000, 0.0000000000000000000 ) ) ;
#273 = AXIS2_PLACEMENT_3D ( 'NONE', #296, #183, #270 ) ;
#274 = FACE_OUTER_BOUND ( 'NONE', #289, .T. ) ;
#275 = DIRECTION ( 'NONE',  ( 0.0000000000000000000, 1.000000000000000000, 0.0000000000000000000 ) ) ;
#276 = ADVANCED_FACE ( 'NONE', ( #83 ), #35, .F. ) ;
#277 = CC_DESIGN_APPROVAL ( #99, ( #141 ) ) ;
#278 = CARTESIAN_POINT ( 'NONE',  ( -1.892735826383161356E-31, 1.039162432702589234, -5.421010862427522170E-17 ) ) ;
#279 = DIRECTION ( 'NONE',  ( 1.000000000000000000, 0.0000000000000000000, 0.0000000000000000000 ) ) ;
#280 = DATE_AND_TIME ( #192, #284 ) ;
#281 = DIRECTION ( 'NONE',  ( 4.881951696799103467E-31, 1.000000000000000000, 1.374147240159075190E-16 ) ) ;
#282 = CIRCLE ( 'NONE', #165, 1.029999999999998916 ) ;
#283 = CARTESIAN_POINT ( 'NONE',  ( 1.735266225405037467E-13, 1.499999999999995559, 49.70000000000000284 ) ) ;
#284 = LOCAL_TIME ( 7, 45, 9.000000000000000000, #116 ) ;
#285 = ADVANCED_FACE ( 'NONE', ( #228 ), #59, .F. ) ;
#286 = DATE_AND_TIME ( #240, #67 ) ;
#287 = AXIS2_PLACEMENT_3D ( 'NONE', #145, #65, #281 ) ;
#288 = CALENDAR_DATE ( 2021, 30, 11 ) ;
#289 = EDGE_LOOP ( 'NONE', ( #201 ) ) ;
#290 = DATE_AND_TIME ( #49, #255 ) ;
#291 = EDGE_LOOP ( 'NONE', ( #101 ) ) ;
#292 = CARTESIAN_POINT ( 'NONE',  ( 3.491481338843133355E-14, -1.224646799147353256E-15, 10.00000000000000000 ) ) ;
#293 = AXIS2_PLACEMENT_3D ( 'NONE', #225, #202, #275 ) ;
#294 = FACE_BOUND ( 'NONE', #131, .T. ) ;
#295 = CC_DESIGN_APPROVAL ( #161, ( #230 ) ) ;
#296 = CARTESIAN_POINT ( 'NONE',  ( 6.982962677686266711E-14, -2.602085213965210642E-15, 20.00000000000000000 ) ) ;
#297 = DIRECTION ( 'NONE',  ( -3.491481338843133355E-15, 1.224646799147353207E-16, -1.000000000000000000 ) ) ;
#298 = DIRECTION ( 'NONE',  ( 3.491481338843133355E-15, -1.224646799147353207E-16, 1.000000000000000000 ) ) ;
#299 = CIRCLE ( 'NONE', #190, 1.183499999999994889 ) ;
#300 = CARTESIAN_POINT ( 'NONE',  ( 0.0000000000000000000, 0.0000000000000000000, 0.0000000000000000000 ) ) ;
#301 = ADVANCED_FACE ( 'NONE', ( #91 ), #43, .F. ) ;
#302 = DIRECTION ( 'NONE',  ( 3.491481338843133355E-15, -1.224646799147353207E-16, 1.000000000000000000 ) ) ;
#303 = CARTESIAN_POINT ( 'NONE',  ( 3.491481338843133355E-14, 1.183499999999993557, 10.00000000000000000 ) ) ;
ENDSEC;
END-ISO-10303-21;
