ISO-10303-21;
HEADER;
FILE_DESCRIPTION (( 'STEP AP203' ),
    '1' );
FILE_NAME ('955020.step',
    '2021-11-30T06:45:08',
    ( '' ),
    ( '' ),
    'SwSTEP 2.0',
    'SolidWorks 2019',
    '' );
FILE_SCHEMA (( 'CONFIG_CONTROL_DESIGN' ));
ENDSEC;

DATA;
#1 = CYLINDRICAL_SURFACE ( 'NONE', #162, 1.064999999999999503 ) ;
#2 = CIRCLE ( 'NONE', #295, 1.064999999999999059 ) ;
#3 = AXIS2_PLACEMENT_3D ( 'NONE', #188, #193, #28 ) ;
#4 = CC_DESIGN_PERSON_AND_ORGANIZATION_ASSIGNMENT ( #205, #293, ( #148 ) ) ;
#5 = DIRECTION ( 'NONE',  ( 0.0000000000000000000, -1.000000000000000000, 0.0000000000000000000 ) ) ;
#6 = PRODUCT_RELATED_PRODUCT_CATEGORY ( 'detail', '', ( #148 ) ) ;
#7 = CALENDAR_DATE ( 2021, 30, 11 ) ;
#8 = DIRECTION ( 'NONE',  ( 4.275831445896958607E-31, 1.000000000000000000, 1.224646799147353207E-16 ) ) ;
#9 = FACE_OUTER_BOUND ( 'NONE', #135, .T. ) ;
#10 = APPROVAL_DATE_TIME ( #129, #280 ) ;
#11 = DIRECTION ( 'NONE',  ( -4.275831445896958607E-31, -1.000000000000000000, -1.224646799147353207E-16 ) ) ;
#12 = TOROIDAL_SURFACE ( 'NONE', #226, 3.065000000000000835, 2.000000000000000000 ) ;
#13 = VERTEX_POINT ( 'NONE', #105 ) ;
#14 = EDGE_LOOP ( 'NONE', ( #296 ) ) ;
#15 = AXIS2_PLACEMENT_3D ( 'NONE', #121, #73, #215 ) ;
#16 = ORIENTED_EDGE ( 'NONE', *, *, #240, .F. ) ;
#17 = EDGE_LOOP ( 'NONE', ( #18 ) ) ;
#18 = ORIENTED_EDGE ( 'NONE', *, *, #189, .F. ) ;
#19 = SHAPE_DEFINITION_REPRESENTATION ( #274, #125 ) ;
#20 = EDGE_LOOP ( 'NONE', ( #164 ) ) ;
#21 = APPROVAL_PERSON_ORGANIZATION ( #114, #39, #42 ) ;
#22 = ADVANCED_FACE ( 'NONE', ( #123 ), #26, .F. ) ;
#23 = DIRECTION ( 'NONE',  ( 3.491481338843133355E-15, -1.224646799147353207E-16, 1.000000000000000000 ) ) ;
#24 = FACE_OUTER_BOUND ( 'NONE', #209, .T. ) ;
#25 = EDGE_CURVE ( 'NONE', #60, #60, #43, .T. ) ;
#26 = PLANE ( 'NONE',  #15 ) ;
#27 = CIRCLE ( 'NONE', #51, 1.200000000000001732 ) ;
#28 = DIRECTION ( 'NONE',  ( -4.275831445896958607E-31, -1.000000000000000000, -1.224646799147353207E-16 ) ) ;
#29 = DIRECTION ( 'NONE',  ( -3.491481338843133355E-15, 1.224646799147353207E-16, -1.000000000000000000 ) ) ;
#30 = DIRECTION ( 'NONE',  ( -3.491481338843133355E-15, 1.224646799147353207E-16, -1.000000000000000000 ) ) ;
#31 = AXIS2_PLACEMENT_3D ( 'NONE', #53, #23, #5 ) ;
#32 = FACE_OUTER_BOUND ( 'NONE', #14, .T. ) ;
#33 = APPROVAL_ROLE ( '' ) ;
#34 = CARTESIAN_POINT ( 'NONE',  ( 3.491481338843133355E-14, 9.137286475867313203E-33, 10.00000000000000000 ) ) ;
#35 = PERSON_AND_ORGANIZATION ( #153, #184 ) ;
#36 = ADVANCED_FACE ( 'NONE', ( #145, #70 ), #12, .F. ) ;
#37 = APPROVAL_ROLE ( '' ) ;
#38 =( GEOMETRIC_REPRESENTATION_CONTEXT ( 3 ) GLOBAL_UNCERTAINTY_ASSIGNED_CONTEXT ( ( #172 ) ) GLOBAL_UNIT_ASSIGNED_CONTEXT ( ( #204, #254, #196 ) ) REPRESENTATION_CONTEXT ( 'NONE', 'WORKASPACE' ) );
#39 = APPROVAL ( #155, 'UNSPECIFIED' ) ;
#40 = APPLICATION_CONTEXT ( 'configuration controlled 3d designs of mechanical parts and assemblies' ) ;
#41 = VERTEX_POINT ( 'NONE', #106 ) ;
#42 = APPROVAL_ROLE ( '' ) ;
#43 = CIRCLE ( 'NONE', #187, 1.500000000000001554 ) ;
#44 = ORIENTED_EDGE ( 'NONE', *, *, #85, .T. ) ;
#45 = AXIS2_PLACEMENT_3D ( 'NONE', #219, #149, #8 ) ;
#46 = COORDINATED_UNIVERSAL_TIME_OFFSET ( 1, 0, .AHEAD. ) ;
#47 = EDGE_LOOP ( 'NONE', ( #107 ) ) ;
#48 = CARTESIAN_POINT ( 'NONE',  ( 7.104220552055901835E-14, -2.491825135286219831E-15, 20.34729635533384595 ) ) ;
#49 = DIRECTION ( 'NONE',  ( 0.0000000000000000000, 1.000000000000000000, 0.0000000000000000000 ) ) ;
#50 = CARTESIAN_POINT ( 'NONE',  ( 3.584309283006850656E-14, -1.257206458976207460E-15, 10.26586979896182150 ) ) ;
#51 = AXIS2_PLACEMENT_3D ( 'NONE', #268, #52, #245 ) ;
#52 = DIRECTION ( 'NONE',  ( -3.491481338843133355E-15, 1.224646799147353207E-16, -1.000000000000000000 ) ) ;
#53 = CARTESIAN_POINT ( 'NONE',  ( 7.905406781760936445E-14, -2.772843435688852750E-15, 22.64198491858562079 ) ) ;
#54 = CARTESIAN_POINT ( 'NONE',  ( 3.491481338843133355E-14, -1.224646799147353256E-15, 10.00000000000000000 ) ) ;
#55 = CARTESIAN_POINT ( 'NONE',  ( 1.735266225405037467E-13, 1.499999999999995559, 49.70000000000000284 ) ) ;
#56 = PLANE ( 'NONE',  #71 ) ;
#57 = DATE_AND_TIME ( #273, #259 ) ;
#58 = CC_DESIGN_PERSON_AND_ORGANIZATION_ASSIGNMENT ( #300, #67, ( #214 ) ) ;
#59 = VERTEX_POINT ( 'NONE', #83 ) ;
#60 = VERTEX_POINT ( 'NONE', #55 ) ;
#61 = CONICAL_SURFACE ( 'NONE', #286, 1.064999999999999059, 0.5235987755982913772 ) ;
#62 = CC_DESIGN_APPROVAL ( #39, ( #180 ) ) ;
#63 = DATE_AND_TIME ( #7, #152 ) ;
#64 = ORIENTED_EDGE ( 'NONE', *, *, #143, .F. ) ;
#65 = AXIS2_PLACEMENT_3D ( 'NONE', #287, #264, #238 ) ;
#66 = AXIS2_PLACEMENT_3D ( 'NONE', #100, #101, #146 ) ;
#67 = PERSON_AND_ORGANIZATION_ROLE ( 'design_supplier' ) ;
#68 = ADVANCED_FACE ( 'NONE', ( #92, #269 ), #183, .T. ) ;
#69 = COORDINATED_UNIVERSAL_TIME_OFFSET ( 1, 0, .AHEAD. ) ;
#70 = FACE_OUTER_BOUND ( 'NONE', #302, .T. ) ;
#71 = AXIS2_PLACEMENT_3D ( 'NONE', #34, #223, #11 ) ;
#72 = ORIENTED_EDGE ( 'NONE', *, *, #131, .T. ) ;
#73 = DIRECTION ( 'NONE',  ( 3.491481338843133355E-15, -1.224646799147353207E-16, 1.000000000000000000 ) ) ;
#74 = FACE_OUTER_BOUND ( 'NONE', #299, .T. ) ;
#75 = CARTESIAN_POINT ( 'NONE',  ( 6.982962677686266711E-14, -2.602085213965210642E-15, 20.00000000000000000 ) ) ;
#76 = DIRECTION ( 'NONE',  ( 0.0000000000000000000, 1.000000000000000000, 0.0000000000000000000 ) ) ;
#77 = FACE_OUTER_BOUND ( 'NONE', #112, .T. ) ;
#78 = COORDINATED_UNIVERSAL_TIME_OFFSET ( 1, 0, .AHEAD. ) ;
#79 = ADVANCED_FACE ( 'NONE', ( #191, #216 ), #80, .T. ) ;
#80 = CONICAL_SURFACE ( 'NONE', #31, 1.499999999999996669, 0.1745329251994261477 ) ;
#81 = PERSON_AND_ORGANIZATION ( #153, #184 ) ;
#82 = CARTESIAN_POINT ( 'NONE',  ( 3.491481338843133355E-14, 1.218499999999993921, 10.00000000000000000 ) ) ;
#83 = CARTESIAN_POINT ( 'NONE',  ( 1.745740669421566678E-13, 1.199999999999995515, 50.00000000000000000 ) ) ;
#84 = EDGE_LOOP ( 'NONE', ( #262 ) ) ;
#85 = EDGE_CURVE ( 'NONE', #255, #255, #132, .T. ) ;
#86 = EDGE_LOOP ( 'NONE', ( #139 ) ) ;
#87 = ADVANCED_FACE ( 'NONE', ( #74, #117 ), #168, .T. ) ;
#88 = AXIS2_PLACEMENT_3D ( 'NONE', #195, #197, #76 ) ;
#89 = LOCAL_TIME ( 7, 45, 8.000000000000000000, #69 ) ;
#90 = DIRECTION ( 'NONE',  ( 0.0000000000000000000, 1.000000000000000000, 0.0000000000000000000 ) ) ;
#91 = EDGE_CURVE ( 'NONE', #175, #175, #2, .T. ) ;
#92 = FACE_BOUND ( 'NONE', #237, .T. ) ;
#93 = LOCAL_TIME ( 7, 45, 8.000000000000000000, #221 ) ;
#94 = DIRECTION ( 'NONE',  ( -3.491481338843133355E-15, 1.224646799147353207E-16, -1.000000000000000000 ) ) ;
#95 = DIRECTION ( 'NONE',  ( 0.0000000000000000000, 1.000000000000000000, 0.0000000000000000000 ) ) ;
#96 = CARTESIAN_POINT ( 'NONE',  ( 8.728703347107827472E-16, -3.061616997868381169E-17, 0.2499999999999998335 ) ) ;
#97 = AXIS2_PLACEMENT_3D ( 'NONE', #96, #167, #303 ) ;
#98 = APPROVAL_PERSON_ORGANIZATION ( #81, #166, #37 ) ;
#99 = APPLICATION_CONTEXT ( 'configuration controlled 3d designs of mechanical parts and assemblies' ) ;
#100 = CARTESIAN_POINT ( 'NONE',  ( 0.0000000000000000000, 0.0000000000000000000, 0.0000000000000000000 ) ) ;
#101 = DIRECTION ( 'NONE',  ( -3.491481338843133355E-15, 1.224646799147353207E-16, -1.000000000000000000 ) ) ;
#102 = PERSON_AND_ORGANIZATION_ROLE ( 'creator' ) ;
#103 = CARTESIAN_POINT ( 'NONE',  ( 6.982962677686266711E-14, -2.449293598294706513E-15, 20.00000000000000000 ) ) ;
#104 = VERTEX_POINT ( 'NONE', #276 ) ;
#105 = CARTESIAN_POINT ( 'NONE',  ( 7.104220552055901835E-14, 1.095384493975579687, 20.34729635533384595 ) ) ;
#106 = CARTESIAN_POINT ( 'NONE',  ( 6.982962677686266711E-14, 1.064999999999997726, 20.00000000000000000 ) ) ;
#107 = ORIENTED_EDGE ( 'NONE', *, *, #246, .F. ) ;
#108 = AXIS2_PLACEMENT_3D ( 'NONE', #54, #171, #288 ) ;
#109 = CC_DESIGN_SECURITY_CLASSIFICATION ( #180, ( #214 ) ) ;
#110 = ORIENTED_EDGE ( 'NONE', *, *, #257, .F. ) ;
#111 = CC_DESIGN_PERSON_AND_ORGANIZATION_ASSIGNMENT ( #207, #211, ( #214 ) ) ;
#112 = EDGE_LOOP ( 'NONE', ( #258 ) ) ;
#113 = EDGE_LOOP ( 'NONE', ( #64 ) ) ;
#114 = PERSON_AND_ORGANIZATION ( #153, #184 ) ;
#115 = ORIENTED_EDGE ( 'NONE', *, *, #25, .T. ) ;
#116 = PLANE ( 'NONE',  #218 ) ;
#117 = FACE_BOUND ( 'NONE', #86, .T. ) ;
#118 = CIRCLE ( 'NONE', #157, 1.095384493975582130 ) ;
#119 = DIRECTION ( 'NONE',  ( 0.0000000000000000000, 1.000000000000000000, 0.0000000000000000000 ) ) ;
#120 = ADVANCED_FACE ( 'NONE', ( #283 ), #244, .F. ) ;
#121 = CARTESIAN_POINT ( 'NONE',  ( -2.296468753875453940E-31, 8.054928083067839076E-33, -6.577347924867802350E-17 ) ) ;
#122 = CC_DESIGN_DATE_AND_TIME_ASSIGNMENT ( #57, #224, ( #235 ) ) ;
#123 = FACE_OUTER_BOUND ( 'NONE', #208, .T. ) ;
#124 = DIRECTION ( 'NONE',  ( 0.0000000000000000000, 1.000000000000000000, 0.0000000000000000000 ) ) ;
#125 = ADVANCED_BREP_SHAPE_REPRESENTATION ( '955020', ( #261, #141, #176 ), #38 ) ;
#126 = FACE_BOUND ( 'NONE', #165, .T. ) ;
#127 = CARTESIAN_POINT ( 'NONE',  ( 3.584309283006850656E-14, 1.064999999999997726, 10.26586979896182150 ) ) ;
#128 = DIRECTION ( 'NONE',  ( 0.0000000000000000000, 1.000000000000000000, 0.0000000000000000000 ) ) ;
#129 = DATE_AND_TIME ( #275, #93 ) ;
#130 = ORIENTED_EDGE ( 'NONE', *, *, #91, .F. ) ;
#131 = EDGE_CURVE ( 'NONE', #13, #13, #118, .T. ) ;
#132 = CIRCLE ( 'NONE', #174, 1.218499999999995254 ) ;
#133 = EDGE_LOOP ( 'NONE', ( #115 ) ) ;
#134 = ORIENTED_EDGE ( 'NONE', *, *, #256, .T. ) ;
#135 = EDGE_LOOP ( 'NONE', ( #16 ) ) ;
#136 = DATE_AND_TIME ( #159, #89 ) ;
#137 = AXIS2_PLACEMENT_3D ( 'NONE', #169, #94, #190 ) ;
#138 = LOCAL_TIME ( 7, 45, 8.000000000000000000, #46 ) ;
#139 = ORIENTED_EDGE ( 'NONE', *, *, #143, .T. ) ;
#140 = FACE_OUTER_BOUND ( 'NONE', #113, .T. ) ;
#141 = MANIFOLD_SOLID_BREP ( 'Corps-Déplacer/Copier1[2]', #232 ) ;
#142 = DIRECTION ( 'NONE',  ( 4.275831445896958607E-31, 1.000000000000000000, 1.224646799147353207E-16 ) ) ;
#143 = EDGE_CURVE ( 'NONE', #59, #59, #27, .T. ) ;
#144 = DIRECTION ( 'NONE',  ( -3.491481338843133355E-15, 1.224646799147353207E-16, -1.000000000000000000 ) ) ;
#145 = FACE_OUTER_BOUND ( 'NONE', #170, .T. ) ;
#146 = DIRECTION ( 'NONE',  ( 4.275831445896958607E-31, 1.000000000000000000, 1.224646799147353454E-16 ) ) ;
#147 = CARTESIAN_POINT ( 'NONE',  ( 3.584309283006850656E-14, -1.257206458976207460E-15, 10.26586979896182150 ) ) ;
#148 = PRODUCT ( '955020', '955020', '', ( #229 ) ) ;
#149 = DIRECTION ( 'NONE',  ( -3.491481338843133355E-15, 1.224646799147353207E-16, -1.000000000000000000 ) ) ;
#150 = CARTESIAN_POINT ( 'NONE',  ( 7.905406781760936445E-14, 1.499999999999994005, 22.64198491858562079 ) ) ;
#151 = VERTEX_POINT ( 'NONE', #271 ) ;
#152 = LOCAL_TIME ( 7, 45, 8.000000000000000000, #160 ) ;
#153 = PERSON ( 'UNSPECIFIED', 'UNSPECIFIED', 'UNSPECIFIED', ('UNSPECIFIED'), ('UNSPECIFIED'), ('UNSPECIFIED') ) ;
#154 = VERTEX_POINT ( 'NONE', #150 ) ;
#155 = APPROVAL_STATUS ( 'not_yet_approved' ) ;
#156 = EDGE_LOOP ( 'NONE', ( #44 ) ) ;
#157 = AXIS2_PLACEMENT_3D ( 'NONE', #48, #281, #95 ) ;
#158 = ORIENTED_EDGE ( 'NONE', *, *, #91, .T. ) ;
#159 = CALENDAR_DATE ( 2021, 30, 11 ) ;
#160 = COORDINATED_UNIVERSAL_TIME_OFFSET ( 1, 0, .AHEAD. ) ;
#161 = DATE_AND_TIME ( #234, #138 ) ;
#162 = AXIS2_PLACEMENT_3D ( 'NONE', #282, #242, #272 ) ;
#163 = APPROVAL_PERSON_ORGANIZATION ( #289, #280, #33 ) ;
#164 = ORIENTED_EDGE ( 'NONE', *, *, #131, .F. ) ;
#165 = EDGE_LOOP ( 'NONE', ( #158 ) ) ;
#166 = APPROVAL ( #177, 'UNSPECIFIED' ) ;
#167 = DIRECTION ( 'NONE',  ( 3.491481338843133355E-15, -1.224646799147353207E-16, 1.000000000000000000 ) ) ;
#168 = CONICAL_SURFACE ( 'NONE', #137, 1.200000000000001732, 0.7853981633974453924 ) ;
#169 = CARTESIAN_POINT ( 'NONE',  ( 1.745740669421566678E-13, -6.123233995736766085E-15, 50.00000000000000000 ) ) ;
#170 = EDGE_LOOP ( 'NONE', ( #206 ) ) ;
#171 = DIRECTION ( 'NONE',  ( -3.491481338843133355E-15, 1.224646799147353207E-16, -1.000000000000000000 ) ) ;
#172 = UNCERTAINTY_MEASURE_WITH_UNIT (LENGTH_MEASURE( 1.000000000000000082E-05 ), #204, 'distance_accuracy_value', 'NONE');
#173 = CARTESIAN_POINT ( 'NONE',  ( 0.0000000000000000000, 0.0000000000000000000, 0.0000000000000000000 ) ) ;
#174 = AXIS2_PLACEMENT_3D ( 'NONE', #186, #265, #119 ) ;
#175 = VERTEX_POINT ( 'NONE', #127 ) ;
#176 = AXIS2_PLACEMENT_3D ( 'NONE', #202, #292, #198 ) ;
#177 = APPROVAL_STATUS ( 'not_yet_approved' ) ;
#178 = CC_DESIGN_PERSON_AND_ORGANIZATION_ASSIGNMENT ( #35, #102, ( #235 ) ) ;
#179 = APPLICATION_PROTOCOL_DEFINITION ( 'international standard', 'config_control_design', 1994, #99 ) ;
#180 = SECURITY_CLASSIFICATION ( '', '', #182 ) ;
#181 = ORIENTED_EDGE ( 'NONE', *, *, #240, .T. ) ;
#182 = SECURITY_CLASSIFICATION_LEVEL ( 'unclassified' ) ;
#183 = CONICAL_SURFACE ( 'NONE', #97, 1.218499999999993921, 0.5235987755982928205 ) ;
#184 = ORGANIZATION ( 'UNSPECIFIED', 'UNSPECIFIED', '' ) ;
#185 = APPROVAL_DATE_TIME ( #63, #166 ) ;
#186 = CARTESIAN_POINT ( 'NONE',  ( 3.491481338843133355E-14, -1.224646799147353256E-15, 10.00000000000000000 ) ) ;
#187 = AXIS2_PLACEMENT_3D ( 'NONE', #266, #217, #90 ) ;
#188 = CARTESIAN_POINT ( 'NONE',  ( 3.491481338843133355E-14, 9.137286475867313203E-33, 10.00000000000000000 ) ) ;
#189 = EDGE_CURVE ( 'NONE', #104, #104, #201, .T. ) ;
#190 = DIRECTION ( 'NONE',  ( 0.0000000000000000000, 1.000000000000000000, 0.0000000000000000000 ) ) ;
#191 = FACE_BOUND ( 'NONE', #20, .T. ) ;
#192 = CIRCLE ( 'NONE', #233, 1.065000000000000169 ) ;
#193 = DIRECTION ( 'NONE',  ( 3.491481338843133355E-15, -1.224646799147353207E-16, 1.000000000000000000 ) ) ;
#194 = AXIS2_PLACEMENT_3D ( 'NONE', #173, #253, #294 ) ;
#195 = CARTESIAN_POINT ( 'NONE',  ( 7.905406781760936445E-14, -2.772843435688852750E-15, 22.64198491858562079 ) ) ;
#196 =( NAMED_UNIT ( * ) SI_UNIT ( $, .STERADIAN. ) SOLID_ANGLE_UNIT ( ) );
#197 = DIRECTION ( 'NONE',  ( -3.491481338843133355E-15, 1.224646799147353207E-16, -1.000000000000000000 ) ) ;
#198 = DIRECTION ( 'NONE',  ( 1.000000000000000000, 0.0000000000000000000, 0.0000000000000000000 ) ) ;
#199 = ADVANCED_FACE ( 'NONE', ( #140 ), #116, .F. ) ;
#200 = CYLINDRICAL_SURFACE ( 'NONE', #66, 1.499999999999999112 ) ;
#201 = CIRCLE ( 'NONE', #65, 1.218499999999993921 ) ;
#202 = CARTESIAN_POINT ( 'NONE',  ( 0.0000000000000000000, 0.0000000000000000000, 0.0000000000000000000 ) ) ;
#203 = ADVANCED_FACE ( 'NONE', ( #24, #213 ), #1, .T. ) ;
#204 =( LENGTH_UNIT ( ) NAMED_UNIT ( * ) SI_UNIT ( .MILLI., .METRE. ) );
#205 = PERSON_AND_ORGANIZATION ( #153, #184 ) ;
#206 = ORIENTED_EDGE ( 'NONE', *, *, #256, .F. ) ;
#207 = PERSON_AND_ORGANIZATION ( #153, #184 ) ;
#208 = EDGE_LOOP ( 'NONE', ( #231 ) ) ;
#209 = EDGE_LOOP ( 'NONE', ( #130 ) ) ;
#210 = APPROVAL_DATE_TIME ( #136, #39 ) ;
#211 = PERSON_AND_ORGANIZATION_ROLE ( 'creator' ) ;
#212 = CARTESIAN_POINT ( 'NONE',  ( 1.745740669421566678E-13, 8.998558695971067645E-33, 50.00000000000000000 ) ) ;
#213 = FACE_OUTER_BOUND ( 'NONE', #301, .T. ) ;
#214 = PRODUCT_DEFINITION_FORMATION_WITH_SPECIFIED_SOURCE ( 'ANY', '', #148, .NOT_KNOWN. ) ;
#215 = DIRECTION ( 'NONE',  ( -4.275831445896958607E-31, -1.000000000000000000, -1.224646799147353207E-16 ) ) ;
#216 = FACE_OUTER_BOUND ( 'NONE', #278, .T. ) ;
#217 = DIRECTION ( 'NONE',  ( -3.491481338843133355E-15, 1.224646799147353207E-16, -1.000000000000000000 ) ) ;
#218 = AXIS2_PLACEMENT_3D ( 'NONE', #212, #239, #142 ) ;
#219 = CARTESIAN_POINT ( 'NONE',  ( -4.592937507750907880E-31, 1.610985616613567815E-32, -1.315469584973560470E-16 ) ) ;
#220 = DIRECTION ( 'NONE',  ( -3.491481338843133355E-15, 1.224646799147353207E-16, -1.000000000000000000 ) ) ;
#221 = COORDINATED_UNIVERSAL_TIME_OFFSET ( 1, 0, .AHEAD. ) ;
#222 = ADVANCED_FACE ( 'NONE', ( #247 ), #56, .T. ) ;
#223 = DIRECTION ( 'NONE',  ( 3.491481338843133355E-15, -1.224646799147353207E-16, 1.000000000000000000 ) ) ;
#224 = DATE_TIME_ROLE ( 'creation_date' ) ;
#225 = DESIGN_CONTEXT ( 'detailed design', #99, 'design' ) ;
#226 = AXIS2_PLACEMENT_3D ( 'NONE', #75, #29, #285 ) ;
#227 = CC_DESIGN_APPROVAL ( #280, ( #235 ) ) ;
#228 = APPLICATION_PROTOCOL_DEFINITION ( 'international standard', 'config_control_design', 1994, #40 ) ;
#229 = MECHANICAL_CONTEXT ( 'NONE', #40, 'mechanical' ) ;
#230 = PERSON_AND_ORGANIZATION_ROLE ( 'classification_officer' ) ;
#231 = ORIENTED_EDGE ( 'NONE', *, *, #257, .T. ) ;
#232 = CLOSED_SHELL ( 'NONE', ( #22, #68, #298, #222 ) ) ;
#233 = AXIS2_PLACEMENT_3D ( 'NONE', #103, #30, #124 ) ;
#234 = CALENDAR_DATE ( 2021, 30, 11 ) ;
#235 = PRODUCT_DEFINITION ( 'UNKNOWN', '', #214, #225 ) ;
#236 = DATE_TIME_ROLE ( 'classification_date' ) ;
#237 = EDGE_LOOP ( 'NONE', ( #110 ) ) ;
#238 = DIRECTION ( 'NONE',  ( 4.741723293526250689E-31, 1.000000000000000000, 1.334676453613676477E-16 ) ) ;
#239 = DIRECTION ( 'NONE',  ( -3.491481338843133355E-15, 1.224646799147353207E-16, -1.000000000000000000 ) ) ;
#240 = EDGE_CURVE ( 'NONE', #154, #154, #243, .T. ) ;
#241 = CC_DESIGN_DATE_AND_TIME_ASSIGNMENT ( #161, #236, ( #180 ) ) ;
#242 = DIRECTION ( 'NONE',  ( -3.491481338843133355E-15, 1.224646799147353207E-16, -1.000000000000000000 ) ) ;
#243 = CIRCLE ( 'NONE', #88, 1.499999999999996669 ) ;
#244 = PLANE ( 'NONE',  #3 ) ;
#245 = DIRECTION ( 'NONE',  ( 0.0000000000000000000, 1.000000000000000000, 0.0000000000000000000 ) ) ;
#246 = EDGE_CURVE ( 'NONE', #151, #151, #267, .T. ) ;
#247 = FACE_OUTER_BOUND ( 'NONE', #47, .T. ) ;
#248 = CLOSED_SHELL ( 'NONE', ( #120, #252, #203, #36, #79, #284, #87, #199 ) ) ;
#249 = CYLINDRICAL_SURFACE ( 'NONE', #194, 1.218499999999994587 ) ;
#250 = CIRCLE ( 'NONE', #45, 1.074162432702589598 ) ;
#251 = APPROVAL_STATUS ( 'not_yet_approved' ) ;
#252 = ADVANCED_FACE ( 'NONE', ( #32, #126 ), #61, .T. ) ;
#253 = DIRECTION ( 'NONE',  ( -3.491481338843133355E-15, 1.224646799147353207E-16, -1.000000000000000000 ) ) ;
#254 =( NAMED_UNIT ( * ) PLANE_ANGLE_UNIT ( ) SI_UNIT ( $, .RADIAN. ) );
#255 = VERTEX_POINT ( 'NONE', #82 ) ;
#256 = EDGE_CURVE ( 'NONE', #41, #41, #192, .T. ) ;
#257 = EDGE_CURVE ( 'NONE', #277, #277, #250, .T. ) ;
#258 = ORIENTED_EDGE ( 'NONE', *, *, #246, .T. ) ;
#259 = LOCAL_TIME ( 7, 45, 8.000000000000000000, #78 ) ;
#260 = CC_DESIGN_PERSON_AND_ORGANIZATION_ASSIGNMENT ( #297, #230, ( #180 ) ) ;
#261 = MANIFOLD_SOLID_BREP ( 'Corps-Déplacer/Copier1[1]', #248 ) ;
#262 = ORIENTED_EDGE ( 'NONE', *, *, #189, .T. ) ;
#263 = CC_DESIGN_APPROVAL ( #166, ( #214 ) ) ;
#264 = DIRECTION ( 'NONE',  ( -3.491481338843133355E-15, 1.224646799147353207E-16, -1.000000000000000000 ) ) ;
#265 = DIRECTION ( 'NONE',  ( -3.491481338843133355E-15, 1.224646799147353207E-16, -1.000000000000000000 ) ) ;
#266 = CARTESIAN_POINT ( 'NONE',  ( 1.735266225405037467E-13, -6.086494591762345225E-15, 49.70000000000000284 ) ) ;
#267 = CIRCLE ( 'NONE', #108, 1.218499999999995254 ) ;
#268 = CARTESIAN_POINT ( 'NONE',  ( 1.745740669421566678E-13, -6.123233995736766085E-15, 50.00000000000000000 ) ) ;
#269 = FACE_OUTER_BOUND ( 'NONE', #84, .T. ) ;
#270 = FACE_OUTER_BOUND ( 'NONE', #17, .T. ) ;
#271 = CARTESIAN_POINT ( 'NONE',  ( 3.491481338843133355E-14, 1.218499999999993921, 10.00000000000000000 ) ) ;
#272 = DIRECTION ( 'NONE',  ( 4.275831445896958607E-31, 1.000000000000000000, 1.224646799147353207E-16 ) ) ;
#273 = CALENDAR_DATE ( 2021, 30, 11 ) ;
#274 = PRODUCT_DEFINITION_SHAPE ( 'NONE', 'NONE',  #235 ) ;
#275 = CALENDAR_DATE ( 2021, 30, 11 ) ;
#276 = CARTESIAN_POINT ( 'NONE',  ( 8.728703347107833388E-16, 1.218499999999993921, 0.2500000000000000000 ) ) ;
#277 = VERTEX_POINT ( 'NONE', #291 ) ;
#278 = EDGE_LOOP ( 'NONE', ( #181 ) ) ;
#279 = ORIENTED_EDGE ( 'NONE', *, *, #25, .F. ) ;
#280 = APPROVAL ( #251, 'UNSPECIFIED' ) ;
#281 = DIRECTION ( 'NONE',  ( -3.491481338843133355E-15, 1.224646799147353207E-16, -1.000000000000000000 ) ) ;
#282 = CARTESIAN_POINT ( 'NONE',  ( 0.0000000000000000000, 0.0000000000000000000, 0.0000000000000000000 ) ) ;
#283 = FACE_OUTER_BOUND ( 'NONE', #156, .T. ) ;
#284 = ADVANCED_FACE ( 'NONE', ( #9, #290 ), #200, .T. ) ;
#285 = DIRECTION ( 'NONE',  ( 4.275831445896958607E-31, 1.000000000000000000, 1.224646799147353207E-16 ) ) ;
#286 = AXIS2_PLACEMENT_3D ( 'NONE', #147, #220, #128 ) ;
#287 = CARTESIAN_POINT ( 'NONE',  ( 8.728703347107827472E-16, -3.061616997868381169E-17, 0.2499999999999998335 ) ) ;
#288 = DIRECTION ( 'NONE',  ( 0.0000000000000000000, 1.000000000000000000, 0.0000000000000000000 ) ) ;
#289 = PERSON_AND_ORGANIZATION ( #153, #184 ) ;
#290 = FACE_OUTER_BOUND ( 'NONE', #133, .T. ) ;
#291 = CARTESIAN_POINT ( 'NONE',  ( 0.0000000000000000000, 1.074162432702589598, 0.0000000000000000000 ) ) ;
#292 = DIRECTION ( 'NONE',  ( 0.0000000000000000000, 0.0000000000000000000, 1.000000000000000000 ) ) ;
#293 = PERSON_AND_ORGANIZATION_ROLE ( 'design_owner' ) ;
#294 = DIRECTION ( 'NONE',  ( 4.275831445896958607E-31, 1.000000000000000000, 1.224646799147353207E-16 ) ) ;
#295 = AXIS2_PLACEMENT_3D ( 'NONE', #50, #144, #49 ) ;
#296 = ORIENTED_EDGE ( 'NONE', *, *, #85, .F. ) ;
#297 = PERSON_AND_ORGANIZATION ( #153, #184 ) ;
#298 = ADVANCED_FACE ( 'NONE', ( #270, #77 ), #249, .T. ) ;
#299 = EDGE_LOOP ( 'NONE', ( #279 ) ) ;
#300 = PERSON_AND_ORGANIZATION ( #153, #184 ) ;
#301 = EDGE_LOOP ( 'NONE', ( #134 ) ) ;
#302 = EDGE_LOOP ( 'NONE', ( #72 ) ) ;
#303 = DIRECTION ( 'NONE',  ( -4.741723293526250689E-31, -1.000000000000000000, -1.334676453613676477E-16 ) ) ;
ENDSEC;
END-ISO-10303-21;
