ISO-10303-21;
HEADER;
FILE_DESCRIPTION (( 'STEP AP203' ),
    '1' );
FILE_NAME ('954783.step',
    '2021-11-30T09:36:59',
    ( '' ),
    ( '' ),
    'SwSTEP 2.0',
    'SolidWorks 2019',
    '' );
FILE_SCHEMA (( 'CONFIG_CONTROL_DESIGN' ));
ENDSEC;

DATA;
#1 = DIRECTION ( 'NONE',  ( -3.491481338843133355E-15, 1.224646799147353454E-16, -1.000000000000000000 ) ) ;
#2 = ORIENTED_EDGE ( 'NONE', *, *, #35, .T. ) ;
#3 = ADVANCED_FACE ( 'NONE', ( #197 ), #292, .F. ) ;
#4 = FACE_BOUND ( 'NONE', #217, .T. ) ;
#5 = AXIS2_PLACEMENT_3D ( 'NONE', #67, #163, #118 ) ;
#6 = CIRCLE ( 'NONE', #99, 1.149999999999999911 ) ;
#7 = ADVANCED_FACE ( 'NONE', ( #39, #64 ), #195, .T. ) ;
#8 = DATE_TIME_ROLE ( 'creation_date' ) ;
#9 = ORIENTED_EDGE ( 'NONE', *, *, #154, .T. ) ;
#10 = PERSON_AND_ORGANIZATION ( #200, #257 ) ;
#11 = DIRECTION ( 'NONE',  ( -3.491481338843133355E-15, 1.224646799147353454E-16, -1.000000000000000000 ) ) ;
#12 = CC_DESIGN_PERSON_AND_ORGANIZATION_ASSIGNMENT ( #106, #196, ( #114 ) ) ;
#13 = APPROVAL_ROLE ( '' ) ;
#14 = ADVANCED_FACE ( 'NONE', ( #152 ), #244, .F. ) ;
#15 = CARTESIAN_POINT ( 'NONE',  ( 0.0000000000000000000, 0.0000000000000000000, 0.0000000000000000000 ) ) ;
#16 = DIRECTION ( 'NONE',  ( -4.253065758676270610E-31, -1.000000000000000000, -1.197131585372291761E-16 ) ) ;
#17 = CIRCLE ( 'NONE', #191, 1.200000000000001510 ) ;
#18 = CONICAL_SURFACE ( 'NONE', #222, 1.200000000000001510, 0.7853981633974453924 ) ;
#19 = CARTESIAN_POINT ( 'NONE',  ( 2.129803616694311221E-13, -7.470345474798856659E-15, 61.00000000000000000 ) ) ;
#20 = DIRECTION ( 'NONE',  ( 0.0000000000000000000, 1.000000000000000000, 0.0000000000000000000 ) ) ;
#21 = CARTESIAN_POINT ( 'NONE',  ( 2.129803616694311221E-13, 8.998558695971049855E-33, 61.00000000000000000 ) ) ;
#22 = CARTESIAN_POINT ( 'NONE',  ( 9.482837466738113547E-14, 1.499999999999992673, 27.15992596391809855 ) ) ;
#23 = EDGE_LOOP ( 'NONE', ( #110 ) ) ;
#24 = DIRECTION ( 'NONE',  ( 0.0000000000000000000, 1.000000000000000000, 0.0000000000000000000 ) ) ;
#25 = EDGE_LOOP ( 'NONE', ( #47 ) ) ;
#26 = VERTEX_POINT ( 'NONE', #290 ) ;
#27 = PRODUCT_DEFINITION_SHAPE ( 'NONE', 'NONE',  #97 ) ;
#28 = EDGE_LOOP ( 'NONE', ( #128 ) ) ;
#29 =( NAMED_UNIT ( * ) PLANE_ANGLE_UNIT ( ) SI_UNIT ( $, .RADIAN. ) );
#30 = DIRECTION ( 'NONE',  ( 3.491481338843133355E-15, -1.224646799147353454E-16, 1.000000000000000000 ) ) ;
#31 = APPROVAL_STATUS ( 'not_yet_approved' ) ;
#32 = EDGE_LOOP ( 'NONE', ( #120 ) ) ;
#33 = COORDINATED_UNIVERSAL_TIME_OFFSET ( 1, 0, .AHEAD. ) ;
#34 = CC_DESIGN_APPROVAL ( #233, ( #97 ) ) ;
#35 = EDGE_CURVE ( 'NONE', #42, #42, #236, .T. ) ;
#36 = FACE_OUTER_BOUND ( 'NONE', #282, .T. ) ;
#37 = CC_DESIGN_APPROVAL ( #165, ( #54 ) ) ;
#38 = DATE_AND_TIME ( #295, #225 ) ;
#39 = FACE_OUTER_BOUND ( 'NONE', #25, .T. ) ;
#40 = EDGE_LOOP ( 'NONE', ( #73 ) ) ;
#41 = ADVANCED_FACE ( 'NONE', ( #205 ), #249, .T. ) ;
#42 = VERTEX_POINT ( 'NONE', #188 ) ;
#43 = LOCAL_TIME ( 10, 36, 59.00000000000000000, #55 ) ;
#44 = CARTESIAN_POINT ( 'NONE',  ( 8.728703347107833388E-14, -3.061616997868383831E-15, 25.00000000000000000 ) ) ;
#45 = CC_DESIGN_PERSON_AND_ORGANIZATION_ASSIGNMENT ( #172, #148, ( #114 ) ) ;
#46 = DIRECTION ( 'NONE',  ( -3.491481338843133355E-15, 1.224646799147353454E-16, -1.000000000000000000 ) ) ;
#47 = ORIENTED_EDGE ( 'NONE', *, *, #198, .F. ) ;
#48 = DIRECTION ( 'NONE',  ( 0.0000000000000000000, 1.000000000000000000, 0.0000000000000000000 ) ) ;
#49 = CC_DESIGN_APPROVAL ( #124, ( #114 ) ) ;
#50 = CALENDAR_DATE ( 2021, 30, 11 ) ;
#51 = ORIENTED_EDGE ( 'NONE', *, *, #115, .T. ) ;
#52 = CARTESIAN_POINT ( 'NONE',  ( 0.0000000000000000000, 0.0000000000000000000, 0.0000000000000000000 ) ) ;
#53 = EDGE_LOOP ( 'NONE', ( #149 ) ) ;
#54 = SECURITY_CLASSIFICATION ( '', '', #79 ) ;
#55 = COORDINATED_UNIVERSAL_TIME_OFFSET ( 1, 0, .AHEAD. ) ;
#56 = ORIENTED_EDGE ( 'NONE', *, *, #115, .F. ) ;
#57 = COORDINATED_UNIVERSAL_TIME_OFFSET ( 1, 0, .AHEAD. ) ;
#58 = CARTESIAN_POINT ( 'NONE',  ( 3.491481338843133355E-14, 1.018711832373065403E-32, 10.00000000000000000 ) ) ;
#59 = CARTESIAN_POINT ( 'NONE',  ( -8.977025562942826676E-31, 3.148716706349216668E-32, -2.571122309339700876E-16 ) ) ;
#60 = AXIS2_PLACEMENT_3D ( 'NONE', #228, #90, #136 ) ;
#61 = ADVANCED_FACE ( 'NONE', ( #185, #266 ), #85, .T. ) ;
#62 = EDGE_LOOP ( 'NONE', ( #51 ) ) ;
#63 = CONICAL_SURFACE ( 'NONE', #156, 1.149999999999998135, 0.5235987755982927094 ) ;
#64 = FACE_OUTER_BOUND ( 'NONE', #235, .T. ) ;
#65 = ADVANCED_FACE ( 'NONE', ( #111, #36 ), #300, .T. ) ;
#66 = FACE_OUTER_BOUND ( 'NONE', #158, .T. ) ;
#67 = CARTESIAN_POINT ( 'NONE',  ( 3.491481338843133355E-14, -1.224646799147353454E-15, 10.00000000000000000 ) ) ;
#68 = LOCAL_TIME ( 10, 36, 59.00000000000000000, #77 ) ;
#69 = CARTESIAN_POINT ( 'NONE',  ( 2.129803616694311221E-13, 1.199999999999993960, 61.00000000000000000 ) ) ;
#70 = EDGE_LOOP ( 'NONE', ( #139 ) ) ;
#71 = FACE_OUTER_BOUND ( 'NONE', #78, .T. ) ;
#72 = UNCERTAINTY_MEASURE_WITH_UNIT (LENGTH_MEASURE( 1.000000000000000082E-05 ), #101, 'distance_accuracy_value', 'NONE');
#73 = ORIENTED_EDGE ( 'NONE', *, *, #287, .T. ) ;
#74 = DIRECTION ( 'NONE',  ( 0.0000000000000000000, 1.000000000000000000, 0.0000000000000000000 ) ) ;
#75 = DATE_AND_TIME ( #241, #237 ) ;
#76 = CIRCLE ( 'NONE', #117, 1.358499999999998709 ) ;
#77 = COORDINATED_UNIVERSAL_TIME_OFFSET ( 1, 0, .AHEAD. ) ;
#78 = EDGE_LOOP ( 'NONE', ( #248 ) ) ;
#79 = SECURITY_CLASSIFICATION_LEVEL ( 'unclassified' ) ;
#80 = ORIENTED_EDGE ( 'NONE', *, *, #171, .T. ) ;
#81 = APPROVAL_ROLE ( '' ) ;
#82 = DIRECTION ( 'NONE',  ( 3.491481338843133355E-15, -1.224646799147353454E-16, 1.000000000000000000 ) ) ;
#83 = PERSON_AND_ORGANIZATION ( #200, #257 ) ;
#84 = FACE_OUTER_BOUND ( 'NONE', #105, .T. ) ;
#85 = CONICAL_SURFACE ( 'NONE', #127, 1.358499999999998709, 0.5235987755982924874 ) ;
#86 = AXIS2_PLACEMENT_3D ( 'NONE', #96, #46, #234 ) ;
#87 = EDGE_LOOP ( 'NONE', ( #80 ) ) ;
#88 = APPROVAL_PERSON_ORGANIZATION ( #83, #165, #13 ) ;
#89 = CARTESIAN_POINT ( 'NONE',  ( 3.617570109905906359E-14, 1.149999999999997025, 10.36113259337811954 ) ) ;
#90 = DIRECTION ( 'NONE',  ( -3.491481338843133355E-15, 1.224646799147353454E-16, -1.000000000000000000 ) ) ;
#91 = ADVANCED_FACE ( 'NONE', ( #107, #155 ), #130, .T. ) ;
#92 = CARTESIAN_POINT ( 'NONE',  ( 9.482837466738113547E-14, -3.326131639679139872E-15, 27.15992596391809855 ) ) ;
#93 = LOCAL_TIME ( 10, 36, 59.00000000000000000, #33 ) ;
#94 = DIRECTION ( 'NONE',  ( 4.275831445896959482E-31, 1.000000000000000000, 1.224646799147353454E-16 ) ) ;
#95 = ORIENTED_EDGE ( 'NONE', *, *, #251, .T. ) ;
#96 = CARTESIAN_POINT ( 'NONE',  ( 3.617570109905906359E-14, -1.268872786602183144E-15, 10.36113259337811954 ) ) ;
#97 = PRODUCT_DEFINITION ( 'UNKNOWN', '', #114, #142 ) ;
#98 = PERSON_AND_ORGANIZATION_ROLE ( 'design_owner' ) ;
#99 = AXIS2_PLACEMENT_3D ( 'NONE', #44, #255, #208 ) ;
#100 = TOROIDAL_SURFACE ( 'NONE', #60, 3.149999999999999911, 2.000000000000000444 ) ;
#101 =( LENGTH_UNIT ( ) NAMED_UNIT ( * ) SI_UNIT ( .MILLI., .METRE. ) );
#102 = PRODUCT ( '954783', '954783', '', ( #213 ) ) ;
#103 = DIRECTION ( 'NONE',  ( 1.000000000000000000, 0.0000000000000000000, 0.0000000000000000000 ) ) ;
#104 = ADVANCED_FACE ( 'NONE', ( #84 ), #272, .F. ) ;
#105 = EDGE_LOOP ( 'NONE', ( #56 ) ) ;
#106 = PERSON_AND_ORGANIZATION ( #200, #257 ) ;
#107 = FACE_OUTER_BOUND ( 'NONE', #260, .T. ) ;
#108 = PERSON_AND_ORGANIZATION ( #200, #257 ) ;
#109 = EDGE_LOOP ( 'NONE', ( #254 ) ) ;
#110 = ORIENTED_EDGE ( 'NONE', *, *, #154, .F. ) ;
#111 = FACE_OUTER_BOUND ( 'NONE', #263, .T. ) ;
#112 = AXIS2_PLACEMENT_3D ( 'NONE', #21, #1, #94 ) ;
#113 = DIRECTION ( 'NONE',  ( -3.491481338843133355E-15, 1.224646799147353454E-16, -1.000000000000000000 ) ) ;
#114 = PRODUCT_DEFINITION_FORMATION_WITH_SPECIFIED_SOURCE ( 'ANY', '', #102, .NOT_KNOWN. ) ;
#115 = EDGE_CURVE ( 'NONE', #278, #278, #17, .T. ) ;
#116 = DIRECTION ( 'NONE',  ( -3.491481338843133355E-15, 1.224646799147353454E-16, -1.000000000000000000 ) ) ;
#117 = AXIS2_PLACEMENT_3D ( 'NONE', #121, #303, #119 ) ;
#118 = DIRECTION ( 'NONE',  ( 0.0000000000000000000, 1.000000000000000000, 0.0000000000000000000 ) ) ;
#119 = DIRECTION ( 'NONE',  ( 4.253065758676270610E-31, 1.000000000000000000, 1.197131585372291761E-16 ) ) ;
#120 = ORIENTED_EDGE ( 'NONE', *, *, #147, .F. ) ;
#121 = CARTESIAN_POINT ( 'NONE',  ( 8.728703347107827472E-16, -3.061616997868381785E-17, 0.2499999999999998335 ) ) ;
#122 = APPLICATION_PROTOCOL_DEFINITION ( 'international standard', 'config_control_design', 1994, #135 ) ;
#123 = VERTEX_POINT ( 'NONE', #240 ) ;
#124 = APPROVAL ( #31, 'UNSPECIFIED' ) ;
#125 = DIRECTION ( 'NONE',  ( -3.491481338843133355E-15, 1.224646799147353454E-16, -1.000000000000000000 ) ) ;
#126 = CARTESIAN_POINT ( 'NONE',  ( 3.491481338843133355E-14, 1.358499999999998709, 10.00000000000000000 ) ) ;
#127 = AXIS2_PLACEMENT_3D ( 'NONE', #243, #30, #16 ) ;
#128 = ORIENTED_EDGE ( 'NONE', *, *, #137, .T. ) ;
#129 = SHAPE_DEFINITION_REPRESENTATION ( #27, #214 ) ;
#130 = CYLINDRICAL_SURFACE ( 'NONE', #153, 1.149999999999999023 ) ;
#131 = ADVANCED_FACE ( 'NONE', ( #66, #189 ), #18, .T. ) ;
#132 = ORIENTED_EDGE ( 'NONE', *, *, #145, .F. ) ;
#133 = FACE_OUTER_BOUND ( 'NONE', #40, .T. ) ;
#134 = FACE_BOUND ( 'NONE', #28, .T. ) ;
#135 = APPLICATION_CONTEXT ( 'configuration controlled 3d designs of mechanical parts and assemblies' ) ;
#136 = DIRECTION ( 'NONE',  ( 4.275831445896959482E-31, 1.000000000000000000, 1.224646799147353454E-16 ) ) ;
#137 = EDGE_CURVE ( 'NONE', #164, #164, #229, .T. ) ;
#138 = CARTESIAN_POINT ( 'NONE',  ( 9.482837466738113547E-14, -3.326131639679139872E-15, 27.15992596391809855 ) ) ;
#139 = ORIENTED_EDGE ( 'NONE', *, *, #35, .F. ) ;
#140 = AXIS2_PLACEMENT_3D ( 'NONE', #151, #226, #159 ) ;
#141 = DIRECTION ( 'NONE',  ( 0.0000000000000000000, -1.000000000000000000, 0.0000000000000000000 ) ) ;
#142 = DESIGN_CONTEXT ( 'detailed design', #285, 'design' ) ;
#143 = CC_DESIGN_PERSON_AND_ORGANIZATION_ASSIGNMENT ( #293, #98, ( #102 ) ) ;
#144 = DIRECTION ( 'NONE',  ( 0.0000000000000000000, 0.0000000000000000000, 1.000000000000000000 ) ) ;
#145 = EDGE_CURVE ( 'NONE', #210, #210, #230, .T. ) ;
#146 = DATE_AND_TIME ( #50, #43 ) ;
#147 = EDGE_CURVE ( 'NONE', #186, #186, #6, .T. ) ;
#148 = PERSON_AND_ORGANIZATION_ROLE ( 'creator' ) ;
#149 = ORIENTED_EDGE ( 'NONE', *, *, #147, .T. ) ;
#150 = COORDINATED_UNIVERSAL_TIME_OFFSET ( 1, 0, .AHEAD. ) ;
#151 = CARTESIAN_POINT ( 'NONE',  ( -4.488512781471413338E-31, 1.574358353174608334E-32, -1.285561154669850438E-16 ) ) ;
#152 = FACE_OUTER_BOUND ( 'NONE', #177, .T. ) ;
#153 = AXIS2_PLACEMENT_3D ( 'NONE', #15, #203, #298 ) ;
#154 = EDGE_CURVE ( 'NONE', #161, #161, #299, .T. ) ;
#155 = FACE_OUTER_BOUND ( 'NONE', #53, .T. ) ;
#156 = AXIS2_PLACEMENT_3D ( 'NONE', #190, #301, #74 ) ;
#157 = PRODUCT_RELATED_PRODUCT_CATEGORY ( 'detail', '', ( #102 ) ) ;
#158 = EDGE_LOOP ( 'NONE', ( #167 ) ) ;
#159 = DIRECTION ( 'NONE',  ( -4.275831445896959482E-31, -1.000000000000000000, -1.224646799147353454E-16 ) ) ;
#160 = CC_DESIGN_DATE_AND_TIME_ASSIGNMENT ( #146, #8, ( #97 ) ) ;
#161 = VERTEX_POINT ( 'NONE', #253 ) ;
#162 = CLOSED_SHELL ( 'NONE', ( #14, #61, #7, #41 ) ) ;
#163 = DIRECTION ( 'NONE',  ( -3.491481338843133355E-15, 1.224646799147353454E-16, -1.000000000000000000 ) ) ;
#164 = VERTEX_POINT ( 'NONE', #89 ) ;
#165 = APPROVAL ( #202, 'UNSPECIFIED' ) ;
#166 = CARTESIAN_POINT ( 'NONE',  ( 2.129803616694311221E-13, -7.470345474798856659E-15, 61.00000000000000000 ) ) ;
#167 = ORIENTED_EDGE ( 'NONE', *, *, #251, .F. ) ;
#168 = CIRCLE ( 'NONE', #5, 1.358500000000000041 ) ;
#169 = DIRECTION ( 'NONE',  ( -3.491481338843133355E-15, 1.224646799147353454E-16, -1.000000000000000000 ) ) ;
#170 = AXIS2_PLACEMENT_3D ( 'NONE', #92, #232, #141 ) ;
#171 = EDGE_CURVE ( 'NONE', #250, #250, #168, .T. ) ;
#172 = PERSON_AND_ORGANIZATION ( #200, #257 ) ;
#173 = CALENDAR_DATE ( 2021, 30, 11 ) ;
#174 = DIRECTION ( 'NONE',  ( 4.275831445896959482E-31, 1.000000000000000000, 1.224646799147353700E-16 ) ) ;
#175 = APPROVAL_PERSON_ORGANIZATION ( #10, #233, #194 ) ;
#176 = PERSON_AND_ORGANIZATION ( #200, #257 ) ;
#177 = EDGE_LOOP ( 'NONE', ( #2 ) ) ;
#178 = DIRECTION ( 'NONE',  ( -4.275831445896959482E-31, -1.000000000000000000, -1.224646799147353454E-16 ) ) ;
#179 =( GEOMETRIC_REPRESENTATION_CONTEXT ( 3 ) GLOBAL_UNCERTAINTY_ASSIGNED_CONTEXT ( ( #72 ) ) GLOBAL_UNIT_ASSIGNED_CONTEXT ( ( #101, #29, #221 ) ) REPRESENTATION_CONTEXT ( 'NONE', 'WORKASPACE' ) );
#180 = CC_DESIGN_PERSON_AND_ORGANIZATION_ASSIGNMENT ( #262, #286, ( #97 ) ) ;
#181 = DATE_TIME_ROLE ( 'classification_date' ) ;
#182 = MANIFOLD_SOLID_BREP ( 'Corps-Déplacer/Copier1[1]', #220 ) ;
#183 = ORIENTED_EDGE ( 'NONE', *, *, #137, .F. ) ;
#184 = AXIS2_PLACEMENT_3D ( 'NONE', #265, #288, #174 ) ;
#185 = FACE_BOUND ( 'NONE', #70, .T. ) ;
#186 = VERTEX_POINT ( 'NONE', #275 ) ;
#187 = CARTESIAN_POINT ( 'NONE',  ( 8.849961221477468513E-14, -3.104148534859897150E-15, 25.34729635533384240 ) ) ;
#188 = CARTESIAN_POINT ( 'NONE',  ( -3.785471652766322713E-31, 1.214162432702594385, -1.084202172485504681E-16 ) ) ;
#189 = FACE_BOUND ( 'NONE', #62, .T. ) ;
#190 = CARTESIAN_POINT ( 'NONE',  ( 3.617570109905906359E-14, -1.268872786602183144E-15, 10.36113259337811954 ) ) ;
#191 = AXIS2_PLACEMENT_3D ( 'NONE', #19, #211, #24 ) ;
#192 = APPLICATION_PROTOCOL_DEFINITION ( 'international standard', 'config_control_design', 1994, #285 ) ;
#193 = CIRCLE ( 'NONE', #246, 1.500000000000001332 ) ;
#194 = APPROVAL_ROLE ( '' ) ;
#195 = CYLINDRICAL_SURFACE ( 'NONE', #184, 1.358499999999999375 ) ;
#196 = PERSON_AND_ORGANIZATION_ROLE ( 'design_supplier' ) ;
#197 = FACE_OUTER_BOUND ( 'NONE', #87, .T. ) ;
#198 = EDGE_CURVE ( 'NONE', #123, #123, #76, .T. ) ;
#199 = DIRECTION ( 'NONE',  ( 3.491481338843133355E-15, -1.224646799147353454E-16, 1.000000000000000000 ) ) ;
#200 = PERSON ( 'UNSPECIFIED', 'UNSPECIFIED', 'UNSPECIFIED', ('UNSPECIFIED'), ('UNSPECIFIED'), ('UNSPECIFIED') ) ;
#201 = ADVANCED_FACE ( 'NONE', ( #4, #71 ), #283, .T. ) ;
#202 = APPROVAL_STATUS ( 'not_yet_approved' ) ;
#203 = DIRECTION ( 'NONE',  ( -3.491481338843133355E-15, 1.224646799147353454E-16, -1.000000000000000000 ) ) ;
#204 = APPROVAL_DATE_TIME ( #268, #165 ) ;
#205 = FACE_OUTER_BOUND ( 'NONE', #23, .T. ) ;
#206 = AXIS2_PLACEMENT_3D ( 'NONE', #274, #125, #219 ) ;
#207 = DIRECTION ( 'NONE',  ( 0.0000000000000000000, 1.000000000000000000, 0.0000000000000000000 ) ) ;
#208 = DIRECTION ( 'NONE',  ( 0.0000000000000000000, 1.000000000000000000, 0.0000000000000000000 ) ) ;
#209 = DIRECTION ( 'NONE',  ( 0.0000000000000000000, 1.000000000000000000, 0.0000000000000000000 ) ) ;
#210 = VERTEX_POINT ( 'NONE', #22 ) ;
#211 = DIRECTION ( 'NONE',  ( -3.491481338843133355E-15, 1.224646799147353454E-16, -1.000000000000000000 ) ) ;
#212 = ORIENTED_EDGE ( 'NONE', *, *, #198, .T. ) ;
#213 = MECHANICAL_CONTEXT ( 'NONE', #135, 'mechanical' ) ;
#214 = ADVANCED_BREP_SHAPE_REPRESENTATION ( '954783', ( #182, #296, #247 ), #179 ) ;
#215 = APPROVAL_STATUS ( 'not_yet_approved' ) ;
#216 = VERTEX_POINT ( 'NONE', #239 ) ;
#217 = EDGE_LOOP ( 'NONE', ( #245 ) ) ;
#218 = APPROVAL_DATE_TIME ( #75, #124 ) ;
#219 = DIRECTION ( 'NONE',  ( 4.275831445896960358E-31, 1.000000000000000000, 1.224646799147353454E-16 ) ) ;
#220 = CLOSED_SHELL ( 'NONE', ( #3, #242, #91, #273, #201, #65, #131, #104 ) ) ;
#221 =( NAMED_UNIT ( * ) SI_UNIT ( $, .STERADIAN. ) SOLID_ANGLE_UNIT ( ) );
#222 = AXIS2_PLACEMENT_3D ( 'NONE', #166, #302, #48 ) ;
#223 = DIRECTION ( 'NONE',  ( -4.275831445896959482E-31, -1.000000000000000000, -1.224646799147353454E-16 ) ) ;
#224 = APPROVAL_PERSON_ORGANIZATION ( #108, #124, #81 ) ;
#225 = LOCAL_TIME ( 10, 36, 59.00000000000000000, #57 ) ;
#226 = DIRECTION ( 'NONE',  ( 3.491481338843133355E-15, -1.224646799147353454E-16, 1.000000000000000000 ) ) ;
#227 = CARTESIAN_POINT ( 'NONE',  ( 3.491481338843133355E-14, 1.018711832373065403E-32, 10.00000000000000000 ) ) ;
#228 = CARTESIAN_POINT ( 'NONE',  ( 8.728703347107833388E-14, -3.035766082959412415E-15, 25.00000000000000000 ) ) ;
#229 = CIRCLE ( 'NONE', #86, 1.149999999999998135 ) ;
#230 = CIRCLE ( 'NONE', #256, 1.499999999999996003 ) ;
#231 = CIRCLE ( 'NONE', #277, 1.180384493975579652 ) ;
#232 = DIRECTION ( 'NONE',  ( 3.491481338843133355E-15, -1.224646799147353454E-16, 1.000000000000000000 ) ) ;
#233 = APPROVAL ( #215, 'UNSPECIFIED' ) ;
#234 = DIRECTION ( 'NONE',  ( 0.0000000000000000000, 1.000000000000000000, 0.0000000000000000000 ) ) ;
#235 = EDGE_LOOP ( 'NONE', ( #9 ) ) ;
#236 = CIRCLE ( 'NONE', #271, 1.214162432702594385 ) ;
#237 = LOCAL_TIME ( 10, 36, 59.00000000000000000, #150 ) ;
#238 = FACE_OUTER_BOUND ( 'NONE', #109, .T. ) ;
#239 = CARTESIAN_POINT ( 'NONE',  ( 8.849961221477468513E-14, 1.180384493975576543, 25.34729635533384240 ) ) ;
#240 = CARTESIAN_POINT ( 'NONE',  ( 8.728703347107833388E-16, 1.358499999999998709, 0.2500000000000000000 ) ) ;
#241 = CALENDAR_DATE ( 2021, 30, 11 ) ;
#242 = ADVANCED_FACE ( 'NONE', ( #238, #134 ), #63, .T. ) ;
#243 = CARTESIAN_POINT ( 'NONE',  ( 8.728703347107827472E-16, -3.061616997868381785E-17, 0.2499999999999998335 ) ) ;
#244 = PLANE ( 'NONE',  #140 ) ;
#245 = ORIENTED_EDGE ( 'NONE', *, *, #287, .F. ) ;
#246 = AXIS2_PLACEMENT_3D ( 'NONE', #281, #169, #252 ) ;
#247 = AXIS2_PLACEMENT_3D ( 'NONE', #52, #144, #103 ) ;
#248 = ORIENTED_EDGE ( 'NONE', *, *, #145, .T. ) ;
#249 = PLANE ( 'NONE',  #270 ) ;
#250 = VERTEX_POINT ( 'NONE', #126 ) ;
#251 = EDGE_CURVE ( 'NONE', #26, #26, #193, .T. ) ;
#252 = DIRECTION ( 'NONE',  ( 0.0000000000000000000, 1.000000000000000000, 0.0000000000000000000 ) ) ;
#253 = CARTESIAN_POINT ( 'NONE',  ( 3.491481338843133355E-14, 1.358499999999998709, 10.00000000000000000 ) ) ;
#254 = ORIENTED_EDGE ( 'NONE', *, *, #171, .F. ) ;
#255 = DIRECTION ( 'NONE',  ( -3.491481338843133355E-15, 1.224646799147353454E-16, -1.000000000000000000 ) ) ;
#256 = AXIS2_PLACEMENT_3D ( 'NONE', #138, #116, #209 ) ;
#257 = ORGANIZATION ( 'UNSPECIFIED', 'UNSPECIFIED', '' ) ;
#258 = FACE_OUTER_BOUND ( 'NONE', #32, .T. ) ;
#259 = APPROVAL_DATE_TIME ( #284, #233 ) ;
#260 = EDGE_LOOP ( 'NONE', ( #183 ) ) ;
#261 = CC_DESIGN_PERSON_AND_ORGANIZATION_ASSIGNMENT ( #176, #264, ( #54 ) ) ;
#262 = PERSON_AND_ORGANIZATION ( #200, #257 ) ;
#263 = EDGE_LOOP ( 'NONE', ( #132 ) ) ;
#264 = PERSON_AND_ORGANIZATION_ROLE ( 'classification_officer' ) ;
#265 = CARTESIAN_POINT ( 'NONE',  ( 0.0000000000000000000, 0.0000000000000000000, 0.0000000000000000000 ) ) ;
#266 = FACE_OUTER_BOUND ( 'NONE', #280, .T. ) ;
#267 = AXIS2_PLACEMENT_3D ( 'NONE', #279, #276, #20 ) ;
#268 = DATE_AND_TIME ( #269, #93 ) ;
#269 = CALENDAR_DATE ( 2021, 30, 11 ) ;
#270 = AXIS2_PLACEMENT_3D ( 'NONE', #227, #82, #178 ) ;
#271 = AXIS2_PLACEMENT_3D ( 'NONE', #59, #11, #294 ) ;
#272 = PLANE ( 'NONE',  #112 ) ;
#273 = ADVANCED_FACE ( 'NONE', ( #258, #133 ), #100, .F. ) ;
#274 = CARTESIAN_POINT ( 'NONE',  ( 0.0000000000000000000, 0.0000000000000000000, 0.0000000000000000000 ) ) ;
#275 = CARTESIAN_POINT ( 'NONE',  ( 8.728703347107833388E-14, 1.149999999999997025, 25.00000000000000000 ) ) ;
#276 = DIRECTION ( 'NONE',  ( -3.491481338843133355E-15, 1.224646799147353454E-16, -1.000000000000000000 ) ) ;
#277 = AXIS2_PLACEMENT_3D ( 'NONE', #187, #113, #207 ) ;
#278 = VERTEX_POINT ( 'NONE', #69 ) ;
#279 = CARTESIAN_POINT ( 'NONE',  ( 3.491481338843133355E-14, -1.224646799147353454E-15, 10.00000000000000000 ) ) ;
#280 = EDGE_LOOP ( 'NONE', ( #212 ) ) ;
#281 = CARTESIAN_POINT ( 'NONE',  ( 2.119329172677781757E-13, -7.433606070824434221E-15, 60.69999999999999574 ) ) ;
#282 = EDGE_LOOP ( 'NONE', ( #95 ) ) ;
#283 = CONICAL_SURFACE ( 'NONE', #170, 1.499999999999996003, 0.1745329251994264252 ) ;
#284 = DATE_AND_TIME ( #173, #68 ) ;
#285 = APPLICATION_CONTEXT ( 'configuration controlled 3d designs of mechanical parts and assemblies' ) ;
#286 = PERSON_AND_ORGANIZATION_ROLE ( 'creator' ) ;
#287 = EDGE_CURVE ( 'NONE', #216, #216, #231, .T. ) ;
#288 = DIRECTION ( 'NONE',  ( -3.491481338843133355E-15, 1.224646799147353454E-16, -1.000000000000000000 ) ) ;
#289 = AXIS2_PLACEMENT_3D ( 'NONE', #58, #199, #223 ) ;
#290 = CARTESIAN_POINT ( 'NONE',  ( 2.119329172677781757E-13, 1.499999999999994005, 60.69999999999999574 ) ) ;
#291 = CC_DESIGN_SECURITY_CLASSIFICATION ( #54, ( #114 ) ) ;
#292 = PLANE ( 'NONE',  #289 ) ;
#293 = PERSON_AND_ORGANIZATION ( #200, #257 ) ;
#294 = DIRECTION ( 'NONE',  ( 4.275831445896959482E-31, 1.000000000000000000, 1.224646799147353454E-16 ) ) ;
#295 = CALENDAR_DATE ( 2021, 30, 11 ) ;
#296 = MANIFOLD_SOLID_BREP ( 'Corps-Déplacer/Copier1[2]', #162 ) ;
#297 = CC_DESIGN_DATE_AND_TIME_ASSIGNMENT ( #38, #181, ( #54 ) ) ;
#298 = DIRECTION ( 'NONE',  ( 4.275831445896959482E-31, 1.000000000000000000, 1.224646799147353454E-16 ) ) ;
#299 = CIRCLE ( 'NONE', #267, 1.358500000000000041 ) ;
#300 = CYLINDRICAL_SURFACE ( 'NONE', #206, 1.499999999999998668 ) ;
#301 = DIRECTION ( 'NONE',  ( -3.491481338843133355E-15, 1.224646799147353454E-16, -1.000000000000000000 ) ) ;
#302 = DIRECTION ( 'NONE',  ( -3.491481338843133355E-15, 1.224646799147353454E-16, -1.000000000000000000 ) ) ;
#303 = DIRECTION ( 'NONE',  ( -3.491481338843133355E-15, 1.224646799147353454E-16, -1.000000000000000000 ) ) ;
ENDSEC;
END-ISO-10303-21;
