ISO-10303-21;
HEADER;
FILE_DESCRIPTION (( 'STEP AP203' ),
    '1' );
FILE_NAME ('954744.step',
    '2021-11-30T06:45:08',
    ( '' ),
    ( '' ),
    'SwSTEP 2.0',
    'SolidWorks 2019',
    '' );
FILE_SCHEMA (( 'CONFIG_CONTROL_DESIGN' ));
ENDSEC;

DATA;
#1 = CC_DESIGN_APPROVAL ( #76, ( #278 ) ) ;
#2 = DIRECTION ( 'NONE',  ( 0.0000000000000000000, 0.0000000000000000000, 1.000000000000000000 ) ) ;
#3 = ADVANCED_FACE ( 'NONE', ( #226 ), #87, .F. ) ;
#4 = ORIENTED_EDGE ( 'NONE', *, *, #66, .T. ) ;
#5 = PERSON_AND_ORGANIZATION ( #193, #72 ) ;
#6 = APPROVAL_DATE_TIME ( #219, #76 ) ;
#7 = ADVANCED_FACE ( 'NONE', ( #224, #237 ), #114, .F. ) ;
#8 = LOCAL_TIME ( 7, 45, 8.000000000000000000, #287 ) ;
#9 = CC_DESIGN_PERSON_AND_ORGANIZATION_ASSIGNMENT ( #150, #128, ( #159 ) ) ;
#10 = EDGE_LOOP ( 'NONE', ( #27 ) ) ;
#11 = CALENDAR_DATE ( 2021, 30, 11 ) ;
#12 = CC_DESIGN_APPROVAL ( #48, ( #122 ) ) ;
#13 = DIRECTION ( 'NONE',  ( -3.491481338843133355E-15, 1.224646799147353207E-16, -1.000000000000000000 ) ) ;
#14 = ORIENTED_EDGE ( 'NONE', *, *, #273, .F. ) ;
#15 = FACE_OUTER_BOUND ( 'NONE', #96, .T. ) ;
#16 = AXIS2_PLACEMENT_3D ( 'NONE', #205, #20, #141 ) ;
#17 = CARTESIAN_POINT ( 'NONE',  ( 8.728703347107831416E-16, -3.061616997868382402E-17, 0.2499999999999999445 ) ) ;
#18 = DIRECTION ( 'NONE',  ( 3.491481338843133355E-15, -1.224646799147353207E-16, 1.000000000000000000 ) ) ;
#19 = CARTESIAN_POINT ( 'NONE',  ( 7.573432244841862964E-14, -2.656402442717349608E-15, 21.69117205521494185 ) ) ;
#20 = DIRECTION ( 'NONE',  ( -3.491481338843133355E-15, 1.224646799147353207E-16, -1.000000000000000000 ) ) ;
#21 = VERTEX_POINT ( 'NONE', #206 ) ;
#22 = EDGE_LOOP ( 'NONE', ( #44 ) ) ;
#23 = CARTESIAN_POINT ( 'NONE',  ( 1.735266225405037467E-13, 1.499999999999995559, 49.70000000000000284 ) ) ;
#24 = AXIS2_PLACEMENT_3D ( 'NONE', #242, #247, #275 ) ;
#25 = CARTESIAN_POINT ( 'NONE',  ( 2.793185071074506684E-14, 1.033499999999999197, 8.000000000000000000 ) ) ;
#26 = CARTESIAN_POINT ( 'NONE',  ( 7.573432244841862964E-14, 1.499999999999994005, 21.69117205521494185 ) ) ;
#27 = ORIENTED_EDGE ( 'NONE', *, *, #273, .T. ) ;
#28 = ORIENTED_EDGE ( 'NONE', *, *, #148, .F. ) ;
#29 = DIRECTION ( 'NONE',  ( 1.000000000000000000, 0.0000000000000000000, 0.0000000000000000000 ) ) ;
#30 = EDGE_LOOP ( 'NONE', ( #234 ) ) ;
#31 = MECHANICAL_CONTEXT ( 'NONE', #290, 'mechanical' ) ;
#32 = CIRCLE ( 'NONE', #135, 0.8891624327025948737 ) ;
#33 = ADVANCED_FACE ( 'NONE', ( #46, #15 ), #116, .T. ) ;
#34 = CALENDAR_DATE ( 2021, 30, 11 ) ;
#35 = EDGE_LOOP ( 'NONE', ( #213 ) ) ;
#36 = COORDINATED_UNIVERSAL_TIME_OFFSET ( 1, 0, .AHEAD. ) ;
#37 = PRODUCT_DEFINITION_SHAPE ( 'NONE', 'NONE',  #122 ) ;
#38 = DESIGN_CONTEXT ( 'detailed design', #280, 'design' ) ;
#39 = ADVANCED_FACE ( 'NONE', ( #182, #115 ), #170, .T. ) ;
#40 = LOCAL_TIME ( 7, 45, 8.000000000000000000, #36 ) ;
#41 = CARTESIAN_POINT ( 'NONE',  ( 1.745740669421566678E-13, -6.123233995736766085E-15, 50.00000000000000000 ) ) ;
#42 = CC_DESIGN_PERSON_AND_ORGANIZATION_ASSIGNMENT ( #173, #260, ( #230 ) ) ;
#43 = CARTESIAN_POINT ( 'NONE',  ( 0.0000000000000000000, 0.0000000000000000000, 0.0000000000000000000 ) ) ;
#44 = ORIENTED_EDGE ( 'NONE', *, *, #45, .F. ) ;
#45 = EDGE_CURVE ( 'NONE', #236, #236, #298, .T. ) ;
#46 = FACE_OUTER_BOUND ( 'NONE', #127, .T. ) ;
#47 = DIRECTION ( 'NONE',  ( -3.491481338843133355E-15, 1.224646799147353207E-16, -1.000000000000000000 ) ) ;
#48 = APPROVAL ( #131, 'UNSPECIFIED' ) ;
#49 = CARTESIAN_POINT ( 'NONE',  ( 8.728703347107831416E-16, -3.061616997868382402E-17, 0.2499999999999999445 ) ) ;
#50 = AXIS2_PLACEMENT_3D ( 'NONE', #41, #269, #225 ) ;
#51 = CARTESIAN_POINT ( 'NONE',  ( 6.284666409917640040E-14, 0.8799999999999980060, 18.00000000000000000 ) ) ;
#52 =( NAMED_UNIT ( * ) PLANE_ANGLE_UNIT ( ) SI_UNIT ( $, .RADIAN. ) );
#53 = ORIENTED_EDGE ( 'NONE', *, *, #66, .F. ) ;
#54 = CONICAL_SURFACE ( 'NONE', #291, 1.033499999999999197, 0.5235987755982924874 ) ;
#55 = DIRECTION ( 'NONE',  ( -3.491481338843133355E-15, 1.224646799147353207E-16, -1.000000000000000000 ) ) ;
#56 = CARTESIAN_POINT ( 'NONE',  ( 2.886013015238226509E-14, -1.012277099146737952E-15, 8.265869798961828607 ) ) ;
#57 = EDGE_CURVE ( 'NONE', #302, #302, #32, .T. ) ;
#58 = APPLICATION_PROTOCOL_DEFINITION ( 'international standard', 'config_control_design', 1994, #280 ) ;
#59 = AXIS2_PLACEMENT_3D ( 'NONE', #84, #2, #29 ) ;
#60 = MANIFOLD_SOLID_BREP ( 'Corps-Déplacer/Copier1[2]', #184 ) ;
#61 = APPROVAL_DATE_TIME ( #179, #48 ) ;
#62 = COORDINATED_UNIVERSAL_TIME_OFFSET ( 1, 0, .AHEAD. ) ;
#63 = EDGE_LOOP ( 'NONE', ( #256 ) ) ;
#64 = AXIS2_PLACEMENT_3D ( 'NONE', #187, #277, #271 ) ;
#65 = PERSON_AND_ORGANIZATION_ROLE ( 'creator' ) ;
#66 = EDGE_CURVE ( 'NONE', #210, #210, #300, .T. ) ;
#67 = AXIS2_PLACEMENT_3D ( 'NONE', #17, #93, #162 ) ;
#68 = UNCERTAINTY_MEASURE_WITH_UNIT (LENGTH_MEASURE( 1.000000000000000082E-05 ), #103, 'distance_accuracy_value', 'NONE');
#69 = CC_DESIGN_PERSON_AND_ORGANIZATION_ASSIGNMENT ( #5, #65, ( #122 ) ) ;
#70 = DIRECTION ( 'NONE',  ( 4.275831445896958607E-31, 1.000000000000000000, 1.224646799147353207E-16 ) ) ;
#71 = ORIENTED_EDGE ( 'NONE', *, *, #126, .F. ) ;
#72 = ORGANIZATION ( 'UNSPECIFIED', 'UNSPECIFIED', '' ) ;
#73 = EDGE_LOOP ( 'NONE', ( #94 ) ) ;
#74 = DIRECTION ( 'NONE',  ( -3.491481338843133355E-15, 1.224646799147353207E-16, -1.000000000000000000 ) ) ;
#75 = EDGE_CURVE ( 'NONE', #171, #171, #294, .T. ) ;
#76 = APPROVAL ( #134, 'UNSPECIFIED' ) ;
#77 = CARTESIAN_POINT ( 'NONE',  ( 7.573432244841862964E-14, -2.656402442717349608E-15, 21.69117205521494185 ) ) ;
#78 = CARTESIAN_POINT ( 'NONE',  ( 2.793185071074506684E-14, 7.750008676905135422E-33, 8.000000000000000000 ) ) ;
#79 = AXIS2_PLACEMENT_3D ( 'NONE', #56, #121, #142 ) ;
#80 = DIRECTION ( 'NONE',  ( 0.0000000000000000000, 1.000000000000000000, 0.0000000000000000000 ) ) ;
#81 = CLOSED_SHELL ( 'NONE', ( #181, #215, #33, #7, #144, #120, #39, #174 ) ) ;
#82 = FACE_OUTER_BOUND ( 'NONE', #175, .T. ) ;
#83 = ORIENTED_EDGE ( 'NONE', *, *, #148, .T. ) ;
#84 = CARTESIAN_POINT ( 'NONE',  ( 0.0000000000000000000, 0.0000000000000000000, 0.0000000000000000000 ) ) ;
#85 = AXIS2_PLACEMENT_3D ( 'NONE', #43, #137, #297 ) ;
#86 = DIRECTION ( 'NONE',  ( -3.491481338843133355E-15, 1.224646799147353207E-16, -1.000000000000000000 ) ) ;
#87 = PLANE ( 'NONE',  #151 ) ;
#88 = ADVANCED_FACE ( 'NONE', ( #97 ), #118, .T. ) ;
#89 = PERSON_AND_ORGANIZATION ( #193, #72 ) ;
#90 = DATE_AND_TIME ( #199, #270 ) ;
#91 = AXIS2_PLACEMENT_3D ( 'NONE', #253, #104, #248 ) ;
#92 = PRODUCT_RELATED_PRODUCT_CATEGORY ( 'detail', '', ( #230 ) ) ;
#93 = DIRECTION ( 'NONE',  ( -3.491481338843133355E-15, 1.224646799147353207E-16, -1.000000000000000000 ) ) ;
#94 = ORIENTED_EDGE ( 'NONE', *, *, #126, .T. ) ;
#95 = DIRECTION ( 'NONE',  ( -3.727005214102055870E-31, -1.000000000000000000, -1.049058705839869655E-16 ) ) ;
#96 = EDGE_LOOP ( 'NONE', ( #155 ) ) ;
#97 = FACE_OUTER_BOUND ( 'NONE', #30, .T. ) ;
#98 = AXIS2_PLACEMENT_3D ( 'NONE', #19, #185, #80 ) ;
#99 = DIRECTION ( 'NONE',  ( 0.0000000000000000000, 1.000000000000000000, 0.0000000000000000000 ) ) ;
#100 = ORIENTED_EDGE ( 'NONE', *, *, #57, .T. ) ;
#101 = PLANE ( 'NONE',  #24 ) ;
#102 = CARTESIAN_POINT ( 'NONE',  ( 2.886013015238226509E-14, -1.012277099146737952E-15, 8.265869798961828607 ) ) ;
#103 =( LENGTH_UNIT ( ) NAMED_UNIT ( * ) SI_UNIT ( .MILLI., .METRE. ) );
#104 = DIRECTION ( 'NONE',  ( -3.491481338843133355E-15, 1.224646799147353207E-16, -1.000000000000000000 ) ) ;
#105 = CIRCLE ( 'NONE', #261, 0.8799999999999987832 ) ;
#106 = CARTESIAN_POINT ( 'NONE',  ( 6.405924284287275164E-14, -2.246895775456749140E-15, 18.34729635533384595 ) ) ;
#107 = ADVANCED_FACE ( 'NONE', ( #299, #165 ), #54, .T. ) ;
#108 = SHAPE_DEFINITION_REPRESENTATION ( #37, #274 ) ;
#109 = LOCAL_TIME ( 7, 45, 8.000000000000000000, #130 ) ;
#110 = ORIENTED_EDGE ( 'NONE', *, *, #268, .T. ) ;
#111 = SECURITY_CLASSIFICATION_LEVEL ( 'unclassified' ) ;
#112 = COORDINATED_UNIVERSAL_TIME_OFFSET ( 1, 0, .AHEAD. ) ;
#113 = DIRECTION ( 'NONE',  ( 4.275831445896958607E-31, 1.000000000000000000, 1.224646799147353207E-16 ) ) ;
#114 = TOROIDAL_SURFACE ( 'NONE', #133, 2.880000000000000338, 2.000000000000000000 ) ;
#115 = FACE_BOUND ( 'NONE', #73, .T. ) ;
#116 = CYLINDRICAL_SURFACE ( 'NONE', #16, 0.8799999999999994493 ) ;
#117 = AXIS2_PLACEMENT_3D ( 'NONE', #188, #147, #282 ) ;
#118 = PLANE ( 'NONE',  #189 ) ;
#119 = CARTESIAN_POINT ( 'NONE',  ( 1.735266225405037467E-13, -6.086494591762345225E-15, 49.70000000000000284 ) ) ;
#120 = ADVANCED_FACE ( 'NONE', ( #183, #265 ), #243, .T. ) ;
#121 = DIRECTION ( 'NONE',  ( -3.491481338843133355E-15, 1.224646799147353207E-16, -1.000000000000000000 ) ) ;
#122 = PRODUCT_DEFINITION ( 'UNKNOWN', '', #159, #38 ) ;
#123 = CARTESIAN_POINT ( 'NONE',  ( 6.405924284287275164E-14, 0.9103844939755794119, 18.34729635533384595 ) ) ;
#124 = FACE_BOUND ( 'NONE', #138, .T. ) ;
#125 = DATE_TIME_ROLE ( 'classification_date' ) ;
#126 = EDGE_CURVE ( 'NONE', #143, #143, #132, .T. ) ;
#127 = EDGE_LOOP ( 'NONE', ( #259 ) ) ;
#128 = PERSON_AND_ORGANIZATION_ROLE ( 'creator' ) ;
#129 = CC_DESIGN_DATE_AND_TIME_ASSIGNMENT ( #154, #172, ( #122 ) ) ;
#130 = COORDINATED_UNIVERSAL_TIME_OFFSET ( 1, 0, .AHEAD. ) ;
#131 = APPROVAL_STATUS ( 'not_yet_approved' ) ;
#132 = CIRCLE ( 'NONE', #180, 1.200000000000001732 ) ;
#133 = AXIS2_PLACEMENT_3D ( 'NONE', #221, #74, #113 ) ;
#134 = APPROVAL_STATUS ( 'not_yet_approved' ) ;
#135 = AXIS2_PLACEMENT_3D ( 'NONE', #160, #295, #296 ) ;
#136 = DIRECTION ( 'NONE',  ( 3.491481338843133355E-15, -1.224646799147353207E-16, 1.000000000000000000 ) ) ;
#137 = DIRECTION ( 'NONE',  ( -3.491481338843133355E-15, 1.224646799147353207E-16, -1.000000000000000000 ) ) ;
#138 = EDGE_LOOP ( 'NONE', ( #266 ) ) ;
#139 = DIRECTION ( 'NONE',  ( 3.491481338843133355E-15, -1.224646799147353207E-16, 1.000000000000000000 ) ) ;
#140 = CIRCLE ( 'NONE', #207, 0.9103844939755816323 ) ;
#141 = DIRECTION ( 'NONE',  ( 4.275831445896958607E-31, 1.000000000000000000, 1.224646799147353207E-16 ) ) ;
#142 = DIRECTION ( 'NONE',  ( 0.0000000000000000000, 1.000000000000000000, 0.0000000000000000000 ) ) ;
#143 = VERTEX_POINT ( 'NONE', #251 ) ;
#144 = ADVANCED_FACE ( 'NONE', ( #164, #186 ), #194, .T. ) ;
#145 = CC_DESIGN_PERSON_AND_ORGANIZATION_ASSIGNMENT ( #149, #241, ( #159 ) ) ;
#146 = CARTESIAN_POINT ( 'NONE',  ( 2.886013015238226509E-14, 0.8799999999999978950, 8.265869798961828607 ) ) ;
#147 = DIRECTION ( 'NONE',  ( -3.491481338843133355E-15, 1.224646799147353207E-16, -1.000000000000000000 ) ) ;
#148 = EDGE_CURVE ( 'NONE', #21, #21, #283, .T. ) ;
#149 = PERSON_AND_ORGANIZATION ( #193, #72 ) ;
#150 = PERSON_AND_ORGANIZATION ( #193, #72 ) ;
#151 = AXIS2_PLACEMENT_3D ( 'NONE', #212, #18, #161 ) ;
#152 = APPROVAL_STATUS ( 'not_yet_approved' ) ;
#153 = EDGE_LOOP ( 'NONE', ( #110 ) ) ;
#154 = DATE_AND_TIME ( #257, #40 ) ;
#155 = ORIENTED_EDGE ( 'NONE', *, *, #45, .T. ) ;
#156 = CIRCLE ( 'NONE', #117, 1.033500000000000307 ) ;
#157 = PERSON_AND_ORGANIZATION ( #193, #72 ) ;
#158 = FACE_OUTER_BOUND ( 'NONE', #10, .T. ) ;
#159 = PRODUCT_DEFINITION_FORMATION_WITH_SPECIFIED_SOURCE ( 'ANY', '', #230, .NOT_KNOWN. ) ;
#160 = CARTESIAN_POINT ( 'NONE',  ( -5.694644516643154736E-31, 1.997412416902622191E-32, -1.631011013374058885E-16 ) ) ;
#161 = DIRECTION ( 'NONE',  ( -4.275831445896958607E-31, -1.000000000000000000, -1.224646799147353207E-16 ) ) ;
#162 = DIRECTION ( 'NONE',  ( 3.727005214102055870E-31, 1.000000000000000000, 1.049058705839869655E-16 ) ) ;
#163 = AXIS2_PLACEMENT_3D ( 'NONE', #201, #267, #203 ) ;
#164 = FACE_BOUND ( 'NONE', #281, .T. ) ;
#165 = FACE_OUTER_BOUND ( 'NONE', #272, .T. ) ;
#166 = DIRECTION ( 'NONE',  ( 0.0000000000000000000, 1.000000000000000000, 0.0000000000000000000 ) ) ;
#167 = CYLINDRICAL_SURFACE ( 'NONE', #91, 1.033499999999999641 ) ;
#168 = APPLICATION_PROTOCOL_DEFINITION ( 'international standard', 'config_control_design', 1994, #290 ) ;
#169 = AXIS2_PLACEMENT_3D ( 'NONE', #119, #244, #231 ) ;
#170 = CONICAL_SURFACE ( 'NONE', #50, 1.200000000000001732, 0.7853981633974453924 ) ;
#171 = VERTEX_POINT ( 'NONE', #23 ) ;
#172 = DATE_TIME_ROLE ( 'creation_date' ) ;
#173 = PERSON_AND_ORGANIZATION ( #193, #72 ) ;
#174 = ADVANCED_FACE ( 'NONE', ( #202 ), #245, .F. ) ;
#175 = EDGE_LOOP ( 'NONE', ( #28 ) ) ;
#176 = CALENDAR_DATE ( 2021, 30, 11 ) ;
#177 = EDGE_LOOP ( 'NONE', ( #53 ) ) ;
#178 = APPROVAL_PERSON_ORGANIZATION ( #157, #48, #195 ) ;
#179 = DATE_AND_TIME ( #11, #289 ) ;
#180 = AXIS2_PLACEMENT_3D ( 'NONE', #200, #13, #99 ) ;
#181 = ADVANCED_FACE ( 'NONE', ( #158 ), #101, .F. ) ;
#182 = FACE_OUTER_BOUND ( 'NONE', #35, .T. ) ;
#183 = FACE_OUTER_BOUND ( 'NONE', #177, .T. ) ;
#184 = CLOSED_SHELL ( 'NONE', ( #3, #107, #196, #88 ) ) ;
#185 = DIRECTION ( 'NONE',  ( -3.491481338843133355E-15, 1.224646799147353207E-16, -1.000000000000000000 ) ) ;
#186 = FACE_OUTER_BOUND ( 'NONE', #217, .T. ) ;
#187 = CARTESIAN_POINT ( 'NONE',  ( 2.793185071074506684E-14, -9.797174393178825657E-16, 8.000000000000000000 ) ) ;
#188 = CARTESIAN_POINT ( 'NONE',  ( 2.793185071074506684E-14, -9.797174393178825657E-16, 8.000000000000000000 ) ) ;
#189 = AXIS2_PLACEMENT_3D ( 'NONE', #78, #228, #293 ) ;
#190 = DIRECTION ( 'NONE',  ( 0.0000000000000000000, 1.000000000000000000, 0.0000000000000000000 ) ) ;
#191 = CARTESIAN_POINT ( 'NONE',  ( 2.793185071074506684E-14, 1.033499999999999197, 8.000000000000000000 ) ) ;
#192 = FACE_OUTER_BOUND ( 'NONE', #286, .T. ) ;
#193 = PERSON ( 'UNSPECIFIED', 'UNSPECIFIED', 'UNSPECIFIED', ('UNSPECIFIED'), ('UNSPECIFIED'), ('UNSPECIFIED') ) ;
#194 = CONICAL_SURFACE ( 'NONE', #258, 1.499999999999996669, 0.1745329251994259534 ) ;
#195 = APPROVAL_ROLE ( '' ) ;
#196 = ADVANCED_FACE ( 'NONE', ( #82, #192 ), #167, .T. ) ;
#197 = APPROVAL_DATE_TIME ( #285, #209 ) ;
#198 = ORIENTED_EDGE ( 'NONE', *, *, #268, .F. ) ;
#199 = CALENDAR_DATE ( 2021, 30, 11 ) ;
#200 = CARTESIAN_POINT ( 'NONE',  ( 1.745740669421566678E-13, -6.123233995736766085E-15, 50.00000000000000000 ) ) ;
#201 = CARTESIAN_POINT ( 'NONE',  ( 6.284666409917640040E-14, -2.204364238465235428E-15, 18.00000000000000000 ) ) ;
#202 = FACE_OUTER_BOUND ( 'NONE', #220, .T. ) ;
#203 = DIRECTION ( 'NONE',  ( 0.0000000000000000000, 1.000000000000000000, 0.0000000000000000000 ) ) ;
#204 = EDGE_LOOP ( 'NONE', ( #100 ) ) ;
#205 = CARTESIAN_POINT ( 'NONE',  ( 0.0000000000000000000, 0.0000000000000000000, 0.0000000000000000000 ) ) ;
#206 = CARTESIAN_POINT ( 'NONE',  ( 8.728703347107835360E-16, 1.033499999999999197, 0.2500000000000000555 ) ) ;
#207 = AXIS2_PLACEMENT_3D ( 'NONE', #106, #86, #166 ) ;
#208 = FACE_OUTER_BOUND ( 'NONE', #218, .T. ) ;
#209 = APPROVAL ( #152, 'UNSPECIFIED' ) ;
#210 = VERTEX_POINT ( 'NONE', #26 ) ;
#211 = CONICAL_SURFACE ( 'NONE', #79, 0.8799999999999987832, 0.5235987755982925984 ) ;
#212 = CARTESIAN_POINT ( 'NONE',  ( -2.847322258321577368E-31, 9.987062084513110957E-33, -8.155055066870294425E-17 ) ) ;
#213 = ORIENTED_EDGE ( 'NONE', *, *, #75, .F. ) ;
#214 = APPROVAL_ROLE ( '' ) ;
#215 = ADVANCED_FACE ( 'NONE', ( #208, #124 ), #211, .T. ) ;
#216 = APPROVAL_ROLE ( '' ) ;
#217 = EDGE_LOOP ( 'NONE', ( #4 ) ) ;
#218 = EDGE_LOOP ( 'NONE', ( #14 ) ) ;
#219 = DATE_AND_TIME ( #34, #8 ) ;
#220 = EDGE_LOOP ( 'NONE', ( #71 ) ) ;
#221 = CARTESIAN_POINT ( 'NONE',  ( 6.284666409917640040E-14, -2.168404344971008868E-15, 18.00000000000000000 ) ) ;
#222 = APPROVAL_PERSON_ORGANIZATION ( #255, #76, #214 ) ;
#223 = EDGE_CURVE ( 'NONE', #279, #279, #105, .T. ) ;
#224 = FACE_OUTER_BOUND ( 'NONE', #22, .T. ) ;
#225 = DIRECTION ( 'NONE',  ( 0.0000000000000000000, 1.000000000000000000, 0.0000000000000000000 ) ) ;
#226 = FACE_OUTER_BOUND ( 'NONE', #204, .T. ) ;
#227 = DIRECTION ( 'NONE',  ( 0.0000000000000000000, -1.000000000000000000, 0.0000000000000000000 ) ) ;
#228 = DIRECTION ( 'NONE',  ( 3.491481338843133355E-15, -1.224646799147353207E-16, 1.000000000000000000 ) ) ;
#229 =( GEOMETRIC_REPRESENTATION_CONTEXT ( 3 ) GLOBAL_UNCERTAINTY_ASSIGNED_CONTEXT ( ( #68 ) ) GLOBAL_UNIT_ASSIGNED_CONTEXT ( ( #103, #52, #233 ) ) REPRESENTATION_CONTEXT ( 'NONE', 'WORKASPACE' ) );
#230 = PRODUCT ( '954744', '954744', '', ( #31 ) ) ;
#231 = DIRECTION ( 'NONE',  ( 0.0000000000000000000, 1.000000000000000000, 0.0000000000000000000 ) ) ;
#232 = CARTESIAN_POINT ( 'NONE',  ( -1.892735826383161356E-31, 0.8891624327025948737, -5.421010862427522170E-17 ) ) ;
#233 =( NAMED_UNIT ( * ) SI_UNIT ( $, .STERADIAN. ) SOLID_ANGLE_UNIT ( ) );
#234 = ORIENTED_EDGE ( 'NONE', *, *, #249, .F. ) ;
#235 = VERTEX_POINT ( 'NONE', #25 ) ;
#236 = VERTEX_POINT ( 'NONE', #51 ) ;
#237 = FACE_OUTER_BOUND ( 'NONE', #153, .T. ) ;
#238 = CC_DESIGN_APPROVAL ( #209, ( #159 ) ) ;
#239 = PERSON_AND_ORGANIZATION_ROLE ( 'classification_officer' ) ;
#240 = AXIS2_PLACEMENT_3D ( 'NONE', #263, #47, #70 ) ;
#241 = PERSON_AND_ORGANIZATION_ROLE ( 'design_supplier' ) ;
#242 = CARTESIAN_POINT ( 'NONE',  ( 2.793185071074506684E-14, 7.750008676905135422E-33, 8.000000000000000000 ) ) ;
#243 = CYLINDRICAL_SURFACE ( 'NONE', #85, 1.499999999999999112 ) ;
#244 = DIRECTION ( 'NONE',  ( -3.491481338843133355E-15, 1.224646799147353207E-16, -1.000000000000000000 ) ) ;
#245 = PLANE ( 'NONE',  #240 ) ;
#246 = CIRCLE ( 'NONE', #64, 1.033500000000000307 ) ;
#247 = DIRECTION ( 'NONE',  ( 3.491481338843133355E-15, -1.224646799147353207E-16, 1.000000000000000000 ) ) ;
#248 = DIRECTION ( 'NONE',  ( 4.275831445896958607E-31, 1.000000000000000000, 1.224646799147353207E-16 ) ) ;
#249 = EDGE_CURVE ( 'NONE', #235, #235, #156, .T. ) ;
#250 = APPROVAL_PERSON_ORGANIZATION ( #89, #209, #216 ) ;
#251 = CARTESIAN_POINT ( 'NONE',  ( 1.745740669421566678E-13, 1.199999999999995515, 50.00000000000000000 ) ) ;
#252 = MANIFOLD_SOLID_BREP ( 'Corps-Déplacer/Copier1[1]', #81 ) ;
#253 = CARTESIAN_POINT ( 'NONE',  ( 0.0000000000000000000, 0.0000000000000000000, 0.0000000000000000000 ) ) ;
#254 = CC_DESIGN_SECURITY_CLASSIFICATION ( #278, ( #159 ) ) ;
#255 = PERSON_AND_ORGANIZATION ( #193, #72 ) ;
#256 = ORIENTED_EDGE ( 'NONE', *, *, #75, .T. ) ;
#257 = CALENDAR_DATE ( 2021, 30, 11 ) ;
#258 = AXIS2_PLACEMENT_3D ( 'NONE', #77, #139, #227 ) ;
#259 = ORIENTED_EDGE ( 'NONE', *, *, #223, .F. ) ;
#260 = PERSON_AND_ORGANIZATION_ROLE ( 'design_owner' ) ;
#261 = AXIS2_PLACEMENT_3D ( 'NONE', #102, #55, #190 ) ;
#262 = ORIENTED_EDGE ( 'NONE', *, *, #57, .F. ) ;
#263 = CARTESIAN_POINT ( 'NONE',  ( 1.745740669421566678E-13, 8.998558695971067645E-33, 50.00000000000000000 ) ) ;
#264 = ORIENTED_EDGE ( 'NONE', *, *, #249, .T. ) ;
#265 = FACE_OUTER_BOUND ( 'NONE', #63, .T. ) ;
#266 = ORIENTED_EDGE ( 'NONE', *, *, #223, .T. ) ;
#267 = DIRECTION ( 'NONE',  ( -3.491481338843133355E-15, 1.224646799147353207E-16, -1.000000000000000000 ) ) ;
#268 = EDGE_CURVE ( 'NONE', #303, #303, #140, .T. ) ;
#269 = DIRECTION ( 'NONE',  ( -3.491481338843133355E-15, 1.224646799147353207E-16, -1.000000000000000000 ) ) ;
#270 = LOCAL_TIME ( 7, 45, 8.000000000000000000, #112 ) ;
#271 = DIRECTION ( 'NONE',  ( 0.0000000000000000000, 1.000000000000000000, 0.0000000000000000000 ) ) ;
#272 = EDGE_LOOP ( 'NONE', ( #83 ) ) ;
#273 = EDGE_CURVE ( 'NONE', #301, #301, #246, .T. ) ;
#274 = ADVANCED_BREP_SHAPE_REPRESENTATION ( '954744', ( #252, #60, #59 ), #229 ) ;
#275 = DIRECTION ( 'NONE',  ( -4.275831445896958607E-31, -1.000000000000000000, -1.224646799147353207E-16 ) ) ;
#276 = CC_DESIGN_PERSON_AND_ORGANIZATION_ASSIGNMENT ( #284, #239, ( #278 ) ) ;
#277 = DIRECTION ( 'NONE',  ( -3.491481338843133355E-15, 1.224646799147353207E-16, -1.000000000000000000 ) ) ;
#278 = SECURITY_CLASSIFICATION ( '', '', #111 ) ;
#279 = VERTEX_POINT ( 'NONE', #146 ) ;
#280 = APPLICATION_CONTEXT ( 'configuration controlled 3d designs of mechanical parts and assemblies' ) ;
#281 = EDGE_LOOP ( 'NONE', ( #198 ) ) ;
#282 = DIRECTION ( 'NONE',  ( 0.0000000000000000000, 1.000000000000000000, 0.0000000000000000000 ) ) ;
#283 = CIRCLE ( 'NONE', #67, 1.033499999999999197 ) ;
#284 = PERSON_AND_ORGANIZATION ( #193, #72 ) ;
#285 = DATE_AND_TIME ( #176, #109 ) ;
#286 = EDGE_LOOP ( 'NONE', ( #264 ) ) ;
#287 = COORDINATED_UNIVERSAL_TIME_OFFSET ( 1, 0, .AHEAD. ) ;
#288 = EDGE_LOOP ( 'NONE', ( #262 ) ) ;
#289 = LOCAL_TIME ( 7, 45, 8.000000000000000000, #62 ) ;
#290 = APPLICATION_CONTEXT ( 'configuration controlled 3d designs of mechanical parts and assemblies' ) ;
#291 = AXIS2_PLACEMENT_3D ( 'NONE', #49, #136, #95 ) ;
#292 = CC_DESIGN_DATE_AND_TIME_ASSIGNMENT ( #90, #125, ( #278 ) ) ;
#293 = DIRECTION ( 'NONE',  ( -4.275831445896958607E-31, -1.000000000000000000, -1.224646799147353207E-16 ) ) ;
#294 = CIRCLE ( 'NONE', #169, 1.500000000000001554 ) ;
#295 = DIRECTION ( 'NONE',  ( -3.491481338843133355E-15, 1.224646799147353207E-16, -1.000000000000000000 ) ) ;
#296 = DIRECTION ( 'NONE',  ( 4.275831445896958607E-31, 1.000000000000000000, 1.224646799147352961E-16 ) ) ;
#297 = DIRECTION ( 'NONE',  ( 4.275831445896958607E-31, 1.000000000000000000, 1.224646799147353454E-16 ) ) ;
#298 = CIRCLE ( 'NONE', #163, 0.8800000000000001155 ) ;
#299 = FACE_BOUND ( 'NONE', #288, .T. ) ;
#300 = CIRCLE ( 'NONE', #98, 1.499999999999996669 ) ;
#301 = VERTEX_POINT ( 'NONE', #191 ) ;
#302 = VERTEX_POINT ( 'NONE', #232 ) ;
#303 = VERTEX_POINT ( 'NONE', #123 ) ;
ENDSEC;
END-ISO-10303-21;
