ISO-10303-21;
HEADER;
FILE_DESCRIPTION (( 'STEP AP203' ),
    '1' );
FILE_NAME ('954734.step',
    '2021-11-30T09:57:12',
    ( '' ),
    ( '' ),
    'SwSTEP 2.0',
    'SolidWorks 2019',
    '' );
FILE_SCHEMA (( 'CONFIG_CONTROL_DESIGN' ));
ENDSEC;

DATA;
#1 = DIRECTION ( 'NONE',  ( 0.0000000000000000000, 1.000000000000000000, 0.0000000000000000000 ) ) ;
#2 = CYLINDRICAL_SURFACE ( 'NONE', #53, 1.393499999999999295 ) ;
#3 =( NAMED_UNIT ( * ) SI_UNIT ( $, .STERADIAN. ) SOLID_ANGLE_UNIT ( ) );
#4 = CC_DESIGN_APPROVAL ( #94, ( #261 ) ) ;
#5 = EDGE_CURVE ( 'NONE', #238, #238, #40, .T. ) ;
#6 = VERTEX_POINT ( 'NONE', #54 ) ;
#7 = ADVANCED_FACE ( 'NONE', ( #295 ), #17, .F. ) ;
#8 = PERSON_AND_ORGANIZATION_ROLE ( 'creator' ) ;
#9 = EDGE_LOOP ( 'NONE', ( #180 ) ) ;
#10 = AXIS2_PLACEMENT_3D ( 'NONE', #111, #131, #11 ) ;
#11 = DIRECTION ( 'NONE',  ( 4.146243152609768716E-31, 1.000000000000000000, 1.167063694817551561E-16 ) ) ;
#12 = APPROVAL_ROLE ( '' ) ;
#13 = ORIENTED_EDGE ( 'NONE', *, *, #61, .F. ) ;
#14 = CALENDAR_DATE ( 2021, 30, 11 ) ;
#15 = MANIFOLD_SOLID_BREP ( 'Corps-Déplacer/Copier1[1]', #166 ) ;
#16 = CYLINDRICAL_SURFACE ( 'NONE', #106, 1.499999999999998668 ) ;
#17 = PLANE ( 'NONE',  #213 ) ;
#18 = ADVANCED_FACE ( 'NONE', ( #271, #64 ), #16, .T. ) ;
#19 = DESIGN_CONTEXT ( 'detailed design', #110, 'design' ) ;
#20 = FACE_OUTER_BOUND ( 'NONE', #225, .T. ) ;
#21 = APPROVAL_PERSON_ORGANIZATION ( #125, #94, #100 ) ;
#22 = CARTESIAN_POINT ( 'NONE',  ( 3.491481338843133355E-14, 1.044957628569647829E-32, 10.00000000000000000 ) ) ;
#23 = DIRECTION ( 'NONE',  ( -3.491481338843133355E-15, 1.224646799147353454E-16, -1.000000000000000000 ) ) ;
#24 = CARTESIAN_POINT ( 'NONE',  ( -5.341208010782897401E-31, 1.873443578579401107E-32, -1.529782774824353586E-16 ) ) ;
#25 = CARTESIAN_POINT ( 'NONE',  ( 8.849961221477469775E-14, 1.205384493975578231, 25.34729635533384595 ) ) ;
#26 = PRODUCT_RELATED_PRODUCT_CATEGORY ( 'detail', '', ( #187 ) ) ;
#27 = AXIS2_PLACEMENT_3D ( 'NONE', #55, #288, #76 ) ;
#28 = CARTESIAN_POINT ( 'NONE',  ( 3.623617532978461367E-14, 1.174999999999996936, 10.37845310145380751 ) ) ;
#29 = APPROVAL_PERSON_ORGANIZATION ( #150, #276, #12 ) ;
#30 = PERSON_AND_ORGANIZATION ( #272, #47 ) ;
#31 = ORIENTED_EDGE ( 'NONE', *, *, #113, .F. ) ;
#32 = SECURITY_CLASSIFICATION_LEVEL ( 'unclassified' ) ;
#33 = ORIENTED_EDGE ( 'NONE', *, *, #197, .T. ) ;
#34 = COORDINATED_UNIVERSAL_TIME_OFFSET ( 1, 0, .AHEAD. ) ;
#35 = EDGE_LOOP ( 'NONE', ( #57 ) ) ;
#36 = DATE_TIME_ROLE ( 'classification_date' ) ;
#37 = EDGE_LOOP ( 'NONE', ( #60 ) ) ;
#38 = CALENDAR_DATE ( 2021, 30, 11 ) ;
#39 = EDGE_LOOP ( 'NONE', ( #136 ) ) ;
#40 = CIRCLE ( 'NONE', #291, 1.174999999999998268 ) ;
#41 = FACE_OUTER_BOUND ( 'NONE', #223, .T. ) ;
#42 = FACE_OUTER_BOUND ( 'NONE', #201, .T. ) ;
#43 = LOCAL_TIME ( 10, 57, 12.00000000000000000, #86 ) ;
#44 = DIRECTION ( 'NONE',  ( 0.0000000000000000000, 1.000000000000000000, 0.0000000000000000000 ) ) ;
#45 = DIRECTION ( 'NONE',  ( 0.0000000000000000000, 1.000000000000000000, 0.0000000000000000000 ) ) ;
#46 = FACE_OUTER_BOUND ( 'NONE', #35, .T. ) ;
#47 = ORGANIZATION ( 'UNSPECIFIED', 'UNSPECIFIED', '' ) ;
#48 = FACE_OUTER_BOUND ( 'NONE', #203, .T. ) ;
#49 = APPLICATION_CONTEXT ( 'configuration controlled 3d designs of mechanical parts and assemblies' ) ;
#50 =( NAMED_UNIT ( * ) PLANE_ANGLE_UNIT ( ) SI_UNIT ( $, .RADIAN. ) );
#51 = TOROIDAL_SURFACE ( 'NONE', #249, 3.175000000000000266, 2.000000000000000000 ) ;
#52 = CARTESIAN_POINT ( 'NONE',  ( 9.433334530136822643E-14, 1.499999999999992673, 27.01814391842764707 ) ) ;
#53 = AXIS2_PLACEMENT_3D ( 'NONE', #248, #147, #143 ) ;
#54 = CARTESIAN_POINT ( 'NONE',  ( -8.552847072295026068E-47, 1.249162432702594305, 0.0000000000000000000 ) ) ;
#55 = CARTESIAN_POINT ( 'NONE',  ( 0.0000000000000000000, 0.0000000000000000000, 0.0000000000000000000 ) ) ;
#56 = DATE_AND_TIME ( #38, #112 ) ;
#57 = ORIENTED_EDGE ( 'NONE', *, *, #149, .T. ) ;
#58 = CC_DESIGN_APPROVAL ( #276, ( #284 ) ) ;
#59 = PERSON_AND_ORGANIZATION ( #272, #47 ) ;
#60 = ORIENTED_EDGE ( 'NONE', *, *, #197, .F. ) ;
#61 = EDGE_CURVE ( 'NONE', #286, #286, #92, .T. ) ;
#62 = EDGE_LOOP ( 'NONE', ( #240 ) ) ;
#63 = APPROVAL_STATUS ( 'not_yet_approved' ) ;
#64 = FACE_OUTER_BOUND ( 'NONE', #153, .T. ) ;
#65 = APPROVAL ( #179, 'UNSPECIFIED' ) ;
#66 = EDGE_LOOP ( 'NONE', ( #177 ) ) ;
#67 = CLOSED_SHELL ( 'NONE', ( #254, #298, #251, #117 ) ) ;
#68 = PLANE ( 'NONE',  #120 ) ;
#69 = AXIS2_PLACEMENT_3D ( 'NONE', #71, #250, #115 ) ;
#70 = DIRECTION ( 'NONE',  ( 4.275831445896959482E-31, 1.000000000000000000, 1.224646799147353454E-16 ) ) ;
#71 = CARTESIAN_POINT ( 'NONE',  ( 9.433334530136822643E-14, -3.308768346860495140E-15, 27.01814391842764707 ) ) ;
#72 = CIRCLE ( 'NONE', #224, 1.175000000000000266 ) ;
#73 = DIRECTION ( 'NONE',  ( 0.0000000000000000000, 1.000000000000000000, 0.0000000000000000000 ) ) ;
#74 = CARTESIAN_POINT ( 'NONE',  ( 8.728703347107833388E-14, -3.061616997868383831E-15, 25.00000000000000000 ) ) ;
#75 = EDGE_CURVE ( 'NONE', #260, #260, #195, .T. ) ;
#76 = DIRECTION ( 'NONE',  ( 1.000000000000000000, 0.0000000000000000000, 0.0000000000000000000 ) ) ;
#77 = FACE_BOUND ( 'NONE', #37, .T. ) ;
#78 = DIRECTION ( 'NONE',  ( 3.491481338843133355E-15, -1.224646799147353454E-16, 1.000000000000000000 ) ) ;
#79 = DATE_AND_TIME ( #152, #127 ) ;
#80 = CIRCLE ( 'NONE', #184, 1.393499999999999961 ) ;
#81 = PERSON_AND_ORGANIZATION ( #272, #47 ) ;
#82 = CC_DESIGN_PERSON_AND_ORGANIZATION_ASSIGNMENT ( #30, #270, ( #217 ) ) ;
#83 =( GEOMETRIC_REPRESENTATION_CONTEXT ( 3 ) GLOBAL_UNCERTAINTY_ASSIGNED_CONTEXT ( ( #160 ) ) GLOBAL_UNIT_ASSIGNED_CONTEXT ( ( #192, #50, #3 ) ) REPRESENTATION_CONTEXT ( 'NONE', 'WORKASPACE' ) );
#84 = APPROVAL_DATE_TIME ( #268, #94 ) ;
#85 = EDGE_LOOP ( 'NONE', ( #31 ) ) ;
#86 = COORDINATED_UNIVERSAL_TIME_OFFSET ( 1, 0, .AHEAD. ) ;
#87 = DIRECTION ( 'NONE',  ( -3.491481338843133355E-15, 1.224646799147353454E-16, -1.000000000000000000 ) ) ;
#88 = PERSON_AND_ORGANIZATION ( #272, #47 ) ;
#89 = DIRECTION ( 'NONE',  ( 4.275831445896960358E-31, 1.000000000000000000, 1.224646799147353454E-16 ) ) ;
#90 = EDGE_LOOP ( 'NONE', ( #227 ) ) ;
#91 = FACE_BOUND ( 'NONE', #90, .T. ) ;
#92 = CIRCLE ( 'NONE', #10, 1.393499999999998629 ) ;
#93 = FACE_OUTER_BOUND ( 'NONE', #219, .T. ) ;
#94 = APPROVAL ( #215, 'UNSPECIFIED' ) ;
#95 = DIRECTION ( 'NONE',  ( -3.491481338843133355E-15, 1.224646799147353454E-16, -1.000000000000000000 ) ) ;
#96 = DIRECTION ( 'NONE',  ( 0.0000000000000000000, 1.000000000000000000, 0.0000000000000000000 ) ) ;
#97 = ADVANCED_FACE ( 'NONE', ( #302, #233 ), #237, .T. ) ;
#98 = LOCAL_TIME ( 10, 57, 12.00000000000000000, #156 ) ;
#99 = PLANE ( 'NONE',  #134 ) ;
#100 = APPROVAL_ROLE ( '' ) ;
#101 = VERTEX_POINT ( 'NONE', #194 ) ;
#102 = PERSON_AND_ORGANIZATION_ROLE ( 'classification_officer' ) ;
#103 = CC_DESIGN_DATE_AND_TIME_ASSIGNMENT ( #56, #128, ( #261 ) ) ;
#104 = SHAPE_DEFINITION_REPRESENTATION ( #281, #232 ) ;
#105 = ORIENTED_EDGE ( 'NONE', *, *, #5, .F. ) ;
#106 = AXIS2_PLACEMENT_3D ( 'NONE', #297, #157, #89 ) ;
#107 = EDGE_LOOP ( 'NONE', ( #243 ) ) ;
#108 = AXIS2_PLACEMENT_3D ( 'NONE', #116, #210, #1 ) ;
#109 = ORIENTED_EDGE ( 'NONE', *, *, #202, .T. ) ;
#110 = APPLICATION_CONTEXT ( 'configuration controlled 3d designs of mechanical parts and assemblies' ) ;
#111 = CARTESIAN_POINT ( 'NONE',  ( 8.728703347107827472E-16, -3.061616997868381785E-17, 0.2499999999999998335 ) ) ;
#112 = LOCAL_TIME ( 10, 57, 12.00000000000000000, #34 ) ;
#113 = EDGE_CURVE ( 'NONE', #165, #165, #80, .T. ) ;
#114 = CYLINDRICAL_SURFACE ( 'NONE', #277, 1.174999999999999378 ) ;
#115 = DIRECTION ( 'NONE',  ( 0.0000000000000000000, 1.000000000000000000, 0.0000000000000000000 ) ) ;
#116 = CARTESIAN_POINT ( 'NONE',  ( 2.129803616694311221E-13, -7.470345474798856659E-15, 61.00000000000000000 ) ) ;
#117 = ADVANCED_FACE ( 'NONE', ( #93 ), #161, .T. ) ;
#118 = MANIFOLD_SOLID_BREP ( 'Corps-Déplacer/Copier1[2]', #67 ) ;
#119 = DIRECTION ( 'NONE',  ( -3.491481338843133355E-15, 1.224646799147353454E-16, -1.000000000000000000 ) ) ;
#120 = AXIS2_PLACEMENT_3D ( 'NONE', #139, #234, #299 ) ;
#121 = PERSON_AND_ORGANIZATION ( #272, #47 ) ;
#122 = CIRCLE ( 'NONE', #171, 1.205384493975581339 ) ;
#123 = APPLICATION_PROTOCOL_DEFINITION ( 'international standard', 'config_control_design', 1994, #110 ) ;
#124 = CARTESIAN_POINT ( 'NONE',  ( 8.728703347107827472E-16, -3.061616997868381785E-17, 0.2499999999999998335 ) ) ;
#125 = PERSON_AND_ORGANIZATION ( #272, #47 ) ;
#126 = ADVANCED_FACE ( 'NONE', ( #158, #41 ), #51, .F. ) ;
#127 = LOCAL_TIME ( 10, 57, 12.00000000000000000, #290 ) ;
#128 = DATE_TIME_ROLE ( 'creation_date' ) ;
#129 = ORIENTED_EDGE ( 'NONE', *, *, #144, .F. ) ;
#130 = PERSON_AND_ORGANIZATION_ROLE ( 'creator' ) ;
#131 = DIRECTION ( 'NONE',  ( -3.491481338843133355E-15, 1.224646799147353454E-16, -1.000000000000000000 ) ) ;
#132 = AXIS2_PLACEMENT_3D ( 'NONE', #22, #278, #252 ) ;
#133 = ORIENTED_EDGE ( 'NONE', *, *, #75, .T. ) ;
#134 = AXIS2_PLACEMENT_3D ( 'NONE', #257, #78, #169 ) ;
#135 = PERSON_AND_ORGANIZATION ( #272, #47 ) ;
#136 = ORIENTED_EDGE ( 'NONE', *, *, #235, .T. ) ;
#137 = DIRECTION ( 'NONE',  ( 4.275831445896958607E-31, 1.000000000000000000, 1.224646799147353454E-16 ) ) ;
#138 = CC_DESIGN_PERSON_AND_ORGANIZATION_ASSIGNMENT ( #88, #130, ( #261 ) ) ;
#139 = CARTESIAN_POINT ( 'NONE',  ( 3.491481338843133355E-14, 1.044957628569647829E-32, 10.00000000000000000 ) ) ;
#140 = DIRECTION ( 'NONE',  ( -3.491481338843133355E-15, 1.224646799147353454E-16, -1.000000000000000000 ) ) ;
#141 = CARTESIAN_POINT ( 'NONE',  ( 2.129803616694311221E-13, -7.470345474798856659E-15, 61.00000000000000000 ) ) ;
#142 = FACE_OUTER_BOUND ( 'NONE', #244, .T. ) ;
#143 = DIRECTION ( 'NONE',  ( 4.275831445896960358E-31, 1.000000000000000000, 1.224646799147353454E-16 ) ) ;
#144 = EDGE_CURVE ( 'NONE', #170, #170, #301, .T. ) ;
#145 = VERTEX_POINT ( 'NONE', #25 ) ;
#146 = AXIS2_PLACEMENT_3D ( 'NONE', #275, #280, #163 ) ;
#147 = DIRECTION ( 'NONE',  ( -3.491481338843133355E-15, 1.224646799147353454E-16, -1.000000000000000000 ) ) ;
#148 = MECHANICAL_CONTEXT ( 'NONE', #49, 'mechanical' ) ;
#149 = EDGE_CURVE ( 'NONE', #262, #262, #159, .T. ) ;
#150 = PERSON_AND_ORGANIZATION ( #272, #47 ) ;
#151 = EDGE_LOOP ( 'NONE', ( #247 ) ) ;
#152 = CALENDAR_DATE ( 2021, 30, 11 ) ;
#153 = EDGE_LOOP ( 'NONE', ( #133 ) ) ;
#154 = ORIENTED_EDGE ( 'NONE', *, *, #149, .F. ) ;
#155 = DIRECTION ( 'NONE',  ( 4.275831445896959482E-31, 1.000000000000000000, 1.224646799147353454E-16 ) ) ;
#156 = COORDINATED_UNIVERSAL_TIME_OFFSET ( 1, 0, .AHEAD. ) ;
#157 = DIRECTION ( 'NONE',  ( -3.491481338843133355E-15, 1.224646799147353454E-16, -1.000000000000000000 ) ) ;
#158 = FACE_OUTER_BOUND ( 'NONE', #245, .T. ) ;
#159 = CIRCLE ( 'NONE', #69, 1.499999999999996003 ) ;
#160 = UNCERTAINTY_MEASURE_WITH_UNIT (LENGTH_MEASURE( 1.000000000000000082E-05 ), #192, 'distance_accuracy_value', 'NONE');
#161 = PLANE ( 'NONE',  #132 ) ;
#162 = DIRECTION ( 'NONE',  ( -3.491481338843133355E-15, 1.224646799147353454E-16, -1.000000000000000000 ) ) ;
#163 = DIRECTION ( 'NONE',  ( 0.0000000000000000000, -1.000000000000000000, 0.0000000000000000000 ) ) ;
#164 = DIRECTION ( 'NONE',  ( -3.491481338843133355E-15, 1.224646799147353454E-16, -1.000000000000000000 ) ) ;
#165 = VERTEX_POINT ( 'NONE', #216 ) ;
#166 = CLOSED_SHELL ( 'NONE', ( #178, #208, #190, #126, #212, #18, #97, #7 ) ) ;
#167 = CARTESIAN_POINT ( 'NONE',  ( 8.728703347107833388E-16, 1.393499999999998629, 0.2500000000000000000 ) ) ;
#168 = CIRCLE ( 'NONE', #303, 1.249162432702594305 ) ;
#169 = DIRECTION ( 'NONE',  ( -4.275831445896959482E-31, -1.000000000000000000, -1.224646799147353454E-16 ) ) ;
#170 = VERTEX_POINT ( 'NONE', #236 ) ;
#171 = AXIS2_PLACEMENT_3D ( 'NONE', #207, #95, #228 ) ;
#172 = CC_DESIGN_PERSON_AND_ORGANIZATION_ASSIGNMENT ( #121, #239, ( #187 ) ) ;
#173 = FACE_OUTER_BOUND ( 'NONE', #151, .T. ) ;
#174 = AXIS2_PLACEMENT_3D ( 'NONE', #141, #140, #96 ) ;
#175 = DATE_AND_TIME ( #218, #43 ) ;
#176 = APPROVAL_ROLE ( '' ) ;
#177 = ORIENTED_EDGE ( 'NONE', *, *, #144, .T. ) ;
#178 = ADVANCED_FACE ( 'NONE', ( #42 ), #68, .F. ) ;
#179 = APPROVAL_STATUS ( 'not_yet_approved' ) ;
#180 = ORIENTED_EDGE ( 'NONE', *, *, #75, .F. ) ;
#181 = ORIENTED_EDGE ( 'NONE', *, *, #113, .T. ) ;
#182 = FACE_BOUND ( 'NONE', #62, .T. ) ;
#183 = FACE_OUTER_BOUND ( 'NONE', #296, .T. ) ;
#184 = AXIS2_PLACEMENT_3D ( 'NONE', #300, #23, #44 ) ;
#185 = DIRECTION ( 'NONE',  ( -3.491481338843133355E-15, 1.224646799147353454E-16, -1.000000000000000000 ) ) ;
#186 = DIRECTION ( 'NONE',  ( -3.491481338843133355E-15, 1.224646799147353454E-16, -1.000000000000000000 ) ) ;
#187 = PRODUCT ( '954734', '954734', '', ( #148 ) ) ;
#188 = CARTESIAN_POINT ( 'NONE',  ( 0.0000000000000000000, 0.0000000000000000000, 0.0000000000000000000 ) ) ;
#189 = COORDINATED_UNIVERSAL_TIME_OFFSET ( 1, 0, .AHEAD. ) ;
#190 = ADVANCED_FACE ( 'NONE', ( #183, #20 ), #114, .T. ) ;
#191 = CC_DESIGN_APPROVAL ( #65, ( #217 ) ) ;
#192 =( LENGTH_UNIT ( ) NAMED_UNIT ( * ) SI_UNIT ( .MILLI., .METRE. ) );
#193 = CARTESIAN_POINT ( 'NONE',  ( 2.129803616694311221E-13, 1.199999999999993960, 61.00000000000000000 ) ) ;
#194 = CARTESIAN_POINT ( 'NONE',  ( 8.728703347107833388E-14, 1.174999999999997158, 25.00000000000000000 ) ) ;
#195 = CIRCLE ( 'NONE', #259, 1.500000000000001332 ) ;
#196 = DIRECTION ( 'NONE',  ( -3.491481338843133355E-15, 1.224646799147353454E-16, -1.000000000000000000 ) ) ;
#197 = EDGE_CURVE ( 'NONE', #6, #6, #168, .T. ) ;
#198 = CARTESIAN_POINT ( 'NONE',  ( 2.119329172677781757E-13, -7.433606070824434221E-15, 60.69999999999999574 ) ) ;
#199 = CIRCLE ( 'NONE', #108, 1.200000000000001510 ) ;
#200 = CARTESIAN_POINT ( 'NONE',  ( 3.623617532978461367E-14, -1.270993937079632838E-15, 10.37845310145380751 ) ) ;
#201 = EDGE_LOOP ( 'NONE', ( #181 ) ) ;
#202 = EDGE_CURVE ( 'NONE', #145, #145, #122, .T. ) ;
#203 = EDGE_LOOP ( 'NONE', ( #33 ) ) ;
#204 = APPROVAL_PERSON_ORGANIZATION ( #81, #65, #176 ) ;
#205 = CARTESIAN_POINT ( 'NONE',  ( 3.623617532978461367E-14, -1.270993937079632838E-15, 10.37845310145380751 ) ) ;
#206 = CARTESIAN_POINT ( 'NONE',  ( 8.728703347107833388E-14, -3.035766082959412415E-15, 25.00000000000000000 ) ) ;
#207 = CARTESIAN_POINT ( 'NONE',  ( 8.849961221477469775E-14, -3.104148534859897544E-15, 25.34729635533384595 ) ) ;
#208 = ADVANCED_FACE ( 'NONE', ( #282, #182 ), #209, .T. ) ;
#209 = CONICAL_SURFACE ( 'NONE', #293, 1.174999999999998268, 0.5235987755982927094 ) ;
#210 = DIRECTION ( 'NONE',  ( -3.491481338843133355E-15, 1.224646799147353454E-16, -1.000000000000000000 ) ) ;
#211 = FACE_OUTER_BOUND ( 'NONE', #66, .T. ) ;
#212 = ADVANCED_FACE ( 'NONE', ( #91, #46 ), #263, .T. ) ;
#213 = AXIS2_PLACEMENT_3D ( 'NONE', #267, #87, #155 ) ;
#214 = CARTESIAN_POINT ( 'NONE',  ( 2.119329172677781757E-13, 1.499999999999994005, 60.69999999999999574 ) ) ;
#215 = APPROVAL_STATUS ( 'not_yet_approved' ) ;
#216 = CARTESIAN_POINT ( 'NONE',  ( 3.491481338843133355E-14, 1.393499999999998629, 10.00000000000000000 ) ) ;
#217 = PRODUCT_DEFINITION_FORMATION_WITH_SPECIFIED_SOURCE ( 'ANY', '', #187, .NOT_KNOWN. ) ;
#218 = CALENDAR_DATE ( 2021, 30, 11 ) ;
#219 = EDGE_LOOP ( 'NONE', ( #129 ) ) ;
#220 = APPROVAL_DATE_TIME ( #242, #276 ) ;
#221 = AXIS2_PLACEMENT_3D ( 'NONE', #253, #119, #45 ) ;
#222 = EDGE_LOOP ( 'NONE', ( #154 ) ) ;
#223 = EDGE_LOOP ( 'NONE', ( #109 ) ) ;
#224 = AXIS2_PLACEMENT_3D ( 'NONE', #74, #164, #255 ) ;
#225 = EDGE_LOOP ( 'NONE', ( #273 ) ) ;
#226 = CC_DESIGN_PERSON_AND_ORGANIZATION_ASSIGNMENT ( #59, #102, ( #284 ) ) ;
#227 = ORIENTED_EDGE ( 'NONE', *, *, #202, .F. ) ;
#228 = DIRECTION ( 'NONE',  ( 0.0000000000000000000, 1.000000000000000000, 0.0000000000000000000 ) ) ;
#229 = CC_DESIGN_SECURITY_CLASSIFICATION ( #284, ( #217 ) ) ;
#230 = DIRECTION ( 'NONE',  ( -3.491481338843133355E-15, 1.224646799147353454E-16, -1.000000000000000000 ) ) ;
#231 = DIRECTION ( 'NONE',  ( 0.0000000000000000000, 1.000000000000000000, 0.0000000000000000000 ) ) ;
#232 = ADVANCED_BREP_SHAPE_REPRESENTATION ( '954734', ( #15, #118, #27 ), #83 ) ;
#233 = FACE_BOUND ( 'NONE', #39, .T. ) ;
#234 = DIRECTION ( 'NONE',  ( 3.491481338843133355E-15, -1.224646799147353454E-16, 1.000000000000000000 ) ) ;
#235 = EDGE_CURVE ( 'NONE', #285, #285, #199, .T. ) ;
#236 = CARTESIAN_POINT ( 'NONE',  ( 3.491481338843133355E-14, 1.393499999999998629, 10.00000000000000000 ) ) ;
#237 = CONICAL_SURFACE ( 'NONE', #174, 1.200000000000001510, 0.7853981633974453924 ) ;
#238 = VERTEX_POINT ( 'NONE', #28 ) ;
#239 = PERSON_AND_ORGANIZATION_ROLE ( 'design_owner' ) ;
#240 = ORIENTED_EDGE ( 'NONE', *, *, #5, .T. ) ;
#241 = EDGE_CURVE ( 'NONE', #101, #101, #72, .T. ) ;
#242 = DATE_AND_TIME ( #14, #98 ) ;
#243 = ORIENTED_EDGE ( 'NONE', *, *, #235, .F. ) ;
#244 = EDGE_LOOP ( 'NONE', ( #13 ) ) ;
#245 = EDGE_LOOP ( 'NONE', ( #269 ) ) ;
#246 = AXIS2_PLACEMENT_3D ( 'NONE', #124, #258, #287 ) ;
#247 = ORIENTED_EDGE ( 'NONE', *, *, #61, .T. ) ;
#248 = CARTESIAN_POINT ( 'NONE',  ( 0.0000000000000000000, 0.0000000000000000000, 0.0000000000000000000 ) ) ;
#249 = AXIS2_PLACEMENT_3D ( 'NONE', #206, #230, #274 ) ;
#250 = DIRECTION ( 'NONE',  ( -3.491481338843133355E-15, 1.224646799147353454E-16, -1.000000000000000000 ) ) ;
#251 = ADVANCED_FACE ( 'NONE', ( #142, #211 ), #2, .T. ) ;
#252 = DIRECTION ( 'NONE',  ( -4.275831445896959482E-31, -1.000000000000000000, -1.224646799147353454E-16 ) ) ;
#253 = CARTESIAN_POINT ( 'NONE',  ( 3.491481338843133355E-14, -1.224646799147353454E-15, 10.00000000000000000 ) ) ;
#254 = ADVANCED_FACE ( 'NONE', ( #48 ), #99, .F. ) ;
#255 = DIRECTION ( 'NONE',  ( 0.0000000000000000000, 1.000000000000000000, 0.0000000000000000000 ) ) ;
#256 = LOCAL_TIME ( 10, 57, 12.00000000000000000, #189 ) ;
#257 = CARTESIAN_POINT ( 'NONE',  ( -2.670604005391448700E-31, 9.367217892897005536E-33, -7.648913874121767930E-17 ) ) ;
#258 = DIRECTION ( 'NONE',  ( 3.491481338843133355E-15, -1.224646799147353454E-16, 1.000000000000000000 ) ) ;
#259 = AXIS2_PLACEMENT_3D ( 'NONE', #198, #294, #231 ) ;
#260 = VERTEX_POINT ( 'NONE', #214 ) ;
#261 = PRODUCT_DEFINITION ( 'UNKNOWN', '', #217, #19 ) ;
#262 = VERTEX_POINT ( 'NONE', #52 ) ;
#263 = CONICAL_SURFACE ( 'NONE', #146, 1.499999999999996003, 0.1745329251994262310 ) ;
#264 = APPLICATION_PROTOCOL_DEFINITION ( 'international standard', 'config_control_design', 1994, #49 ) ;
#265 = CC_DESIGN_DATE_AND_TIME_ASSIGNMENT ( #79, #36, ( #284 ) ) ;
#266 = APPROVAL_DATE_TIME ( #175, #65 ) ;
#267 = CARTESIAN_POINT ( 'NONE',  ( 2.129803616694311221E-13, 8.998558695971049855E-33, 61.00000000000000000 ) ) ;
#268 = DATE_AND_TIME ( #283, #256 ) ;
#269 = ORIENTED_EDGE ( 'NONE', *, *, #241, .F. ) ;
#270 = PERSON_AND_ORGANIZATION_ROLE ( 'design_supplier' ) ;
#271 = FACE_OUTER_BOUND ( 'NONE', #222, .T. ) ;
#272 = PERSON ( 'UNSPECIFIED', 'UNSPECIFIED', 'UNSPECIFIED', ('UNSPECIFIED'), ('UNSPECIFIED'), ('UNSPECIFIED') ) ;
#273 = ORIENTED_EDGE ( 'NONE', *, *, #241, .T. ) ;
#274 = DIRECTION ( 'NONE',  ( 4.275831445896959482E-31, 1.000000000000000000, 1.224646799147353454E-16 ) ) ;
#275 = CARTESIAN_POINT ( 'NONE',  ( 9.433334530136822643E-14, -3.308768346860495140E-15, 27.01814391842764707 ) ) ;
#276 = APPROVAL ( #63, 'UNSPECIFIED' ) ;
#277 = AXIS2_PLACEMENT_3D ( 'NONE', #188, #185, #70 ) ;
#278 = DIRECTION ( 'NONE',  ( 3.491481338843133355E-15, -1.224646799147353454E-16, 1.000000000000000000 ) ) ;
#279 = CONICAL_SURFACE ( 'NONE', #246, 1.393499999999998629, 0.5235987755982927094 ) ;
#280 = DIRECTION ( 'NONE',  ( 3.491481338843133355E-15, -1.224646799147353454E-16, 1.000000000000000000 ) ) ;
#281 = PRODUCT_DEFINITION_SHAPE ( 'NONE', 'NONE',  #261 ) ;
#282 = FACE_OUTER_BOUND ( 'NONE', #85, .T. ) ;
#283 = CALENDAR_DATE ( 2021, 30, 11 ) ;
#284 = SECURITY_CLASSIFICATION ( '', '', #32 ) ;
#285 = VERTEX_POINT ( 'NONE', #193 ) ;
#286 = VERTEX_POINT ( 'NONE', #167 ) ;
#287 = DIRECTION ( 'NONE',  ( -4.146243152609768716E-31, -1.000000000000000000, -1.167063694817551561E-16 ) ) ;
#288 = DIRECTION ( 'NONE',  ( 0.0000000000000000000, 0.0000000000000000000, 1.000000000000000000 ) ) ;
#289 = CC_DESIGN_PERSON_AND_ORGANIZATION_ASSIGNMENT ( #135, #8, ( #217 ) ) ;
#290 = COORDINATED_UNIVERSAL_TIME_OFFSET ( 1, 0, .AHEAD. ) ;
#291 = AXIS2_PLACEMENT_3D ( 'NONE', #200, #196, #292 ) ;
#292 = DIRECTION ( 'NONE',  ( 0.0000000000000000000, 1.000000000000000000, 0.0000000000000000000 ) ) ;
#293 = AXIS2_PLACEMENT_3D ( 'NONE', #205, #186, #73 ) ;
#294 = DIRECTION ( 'NONE',  ( -3.491481338843133355E-15, 1.224646799147353454E-16, -1.000000000000000000 ) ) ;
#295 = FACE_OUTER_BOUND ( 'NONE', #107, .T. ) ;
#296 = EDGE_LOOP ( 'NONE', ( #105 ) ) ;
#297 = CARTESIAN_POINT ( 'NONE',  ( 0.0000000000000000000, 0.0000000000000000000, 0.0000000000000000000 ) ) ;
#298 = ADVANCED_FACE ( 'NONE', ( #77, #173 ), #279, .T. ) ;
#299 = DIRECTION ( 'NONE',  ( -4.275831445896959482E-31, -1.000000000000000000, -1.224646799147353454E-16 ) ) ;
#300 = CARTESIAN_POINT ( 'NONE',  ( 3.491481338843133355E-14, -1.224646799147353454E-15, 10.00000000000000000 ) ) ;
#301 = CIRCLE ( 'NONE', #221, 1.393499999999999961 ) ;
#302 = FACE_OUTER_BOUND ( 'NONE', #9, .T. ) ;
#303 = AXIS2_PLACEMENT_3D ( 'NONE', #24, #162, #137 ) ;
ENDSEC;
END-ISO-10303-21;
