ISO-10303-21;
HEADER;
FILE_DESCRIPTION (( 'STEP AP203' ),
    '1' );
FILE_NAME ('954733.step',
    '2021-11-30T09:01:42',
    ( '' ),
    ( '' ),
    'SwSTEP 2.0',
    'SolidWorks 2019',
    '' );
FILE_SCHEMA (( 'CONFIG_CONTROL_DESIGN' ));
ENDSEC;

DATA;
#1 = DIRECTION ( 'NONE',  ( 0.0000000000000000000, 1.000000000000000000, 0.0000000000000000000 ) ) ;
#2 = CIRCLE ( 'NONE', #86, 1.499999999999995559 ) ;
#3 = CARTESIAN_POINT ( 'NONE',  ( 3.491481338843133355E-14, 1.268499999999998629, 10.00000000000000000 ) ) ;
#4 = AXIS2_PLACEMENT_3D ( 'NONE', #118, #60, #162 ) ;
#5 = ORIENTED_EDGE ( 'NONE', *, *, #110, .T. ) ;
#6 = CIRCLE ( 'NONE', #108, 1.268499999999998629 ) ;
#7 = DIRECTION ( 'NONE',  ( -3.491481338843133355E-15, 1.224646799147353454E-16, -1.000000000000000000 ) ) ;
#8 = CARTESIAN_POINT ( 'NONE',  ( -1.892735826383160481E-31, 1.124162432702594083, -5.421010862427522170E-17 ) ) ;
#9 = DIRECTION ( 'NONE',  ( 0.0000000000000000000, 1.000000000000000000, 0.0000000000000000000 ) ) ;
#10 = CARTESIAN_POINT ( 'NONE',  ( 3.491481338843133355E-14, -1.224646799147353454E-15, 10.00000000000000000 ) ) ;
#11 = APPLICATION_PROTOCOL_DEFINITION ( 'international standard', 'config_control_design', 1994, #135 ) ;
#12 = EDGE_CURVE ( 'NONE', #303, #303, #164, .T. ) ;
#13 = ORIENTED_EDGE ( 'NONE', *, *, #166, .T. ) ;
#14 = AXIS2_PLACEMENT_3D ( 'NONE', #10, #130, #238 ) ;
#15 = ORIENTED_EDGE ( 'NONE', *, *, #12, .F. ) ;
#16 = CARTESIAN_POINT ( 'NONE',  ( 6.982962677686266711E-14, -2.602085213965210642E-15, 20.00000000000000000 ) ) ;
#17 = CYLINDRICAL_SURFACE ( 'NONE', #253, 1.499999999999998224 ) ;
#18 = AXIS2_PLACEMENT_3D ( 'NONE', #252, #62, #161 ) ;
#19 = AXIS2_PLACEMENT_3D ( 'NONE', #155, #243, #9 ) ;
#20 = DIRECTION ( 'NONE',  ( -4.275831445896959482E-31, -1.000000000000000000, -1.224646799147353454E-16 ) ) ;
#21 = CARTESIAN_POINT ( 'NONE',  ( 0.0000000000000000000, 0.0000000000000000000, 0.0000000000000000000 ) ) ;
#22 = FACE_OUTER_BOUND ( 'NONE', #58, .T. ) ;
#23 = EDGE_CURVE ( 'NONE', #64, #64, #107, .T. ) ;
#24 = CC_DESIGN_PERSON_AND_ORGANIZATION_ASSIGNMENT ( #204, #150, ( #123 ) ) ;
#25 = EDGE_CURVE ( 'NONE', #68, #68, #145, .T. ) ;
#26 = LOCAL_TIME ( 10, 1, 42.00000000000000000, #76 ) ;
#27 = ORIENTED_EDGE ( 'NONE', *, *, #25, .T. ) ;
#28 = AXIS2_PLACEMENT_3D ( 'NONE', #149, #215, #176 ) ;
#29 = ORIENTED_EDGE ( 'NONE', *, *, #25, .F. ) ;
#30 = DATE_TIME_ROLE ( 'creation_date' ) ;
#31 = AXIS2_PLACEMENT_3D ( 'NONE', #39, #206, #163 ) ;
#32 = FACE_OUTER_BOUND ( 'NONE', #286, .T. ) ;
#33 = COORDINATED_UNIVERSAL_TIME_OFFSET ( 1, 0, .AHEAD. ) ;
#34 = ORIENTED_EDGE ( 'NONE', *, *, #23, .T. ) ;
#35 = APPROVAL_STATUS ( 'not_yet_approved' ) ;
#36 = MANIFOLD_SOLID_BREP ( 'Corps-Déplacer/Copier1[1]', #294 ) ;
#37 = DIRECTION ( 'NONE',  ( -3.491481338843133355E-15, 1.224646799147353454E-16, -1.000000000000000000 ) ) ;
#38 = DIRECTION ( 'NONE',  ( 0.0000000000000000000, 1.000000000000000000, 0.0000000000000000000 ) ) ;
#39 = CARTESIAN_POINT ( 'NONE',  ( 2.129803616694311221E-13, 8.998558695971049855E-33, 61.00000000000000000 ) ) ;
#40 = FACE_OUTER_BOUND ( 'NONE', #218, .T. ) ;
#41 = MANIFOLD_SOLID_BREP ( 'Corps-Déplacer/Copier1[2]', #175 ) ;
#42 = TOROIDAL_SURFACE ( 'NONE', #295, 3.050000000000000711, 2.000000000000000444 ) ;
#43 = FACE_OUTER_BOUND ( 'NONE', #96, .T. ) ;
#44 = ADVANCED_FACE ( 'NONE', ( #220, #203 ), #137, .T. ) ;
#45 = CARTESIAN_POINT ( 'NONE',  ( 2.129803616694311221E-13, -7.470345474798856659E-15, 61.00000000000000000 ) ) ;
#46 = CARTESIAN_POINT ( 'NONE',  ( 8.728703347107833388E-16, 1.268499999999998629, 0.2500000000000000000 ) ) ;
#47 = APPROVAL_STATUS ( 'not_yet_approved' ) ;
#48 = ORIENTED_EDGE ( 'NONE', *, *, #237, .T. ) ;
#49 = EDGE_LOOP ( 'NONE', ( #27 ) ) ;
#50 = MECHANICAL_CONTEXT ( 'NONE', #98, 'mechanical' ) ;
#51 = CYLINDRICAL_SURFACE ( 'NONE', #141, 1.268499999999999295 ) ;
#52 = CALENDAR_DATE ( 2021, 30, 11 ) ;
#53 = AXIS2_PLACEMENT_3D ( 'NONE', #223, #249, #111 ) ;
#54 = APPROVAL ( #47, 'UNSPECIFIED' ) ;
#55 = EDGE_LOOP ( 'NONE', ( #105 ) ) ;
#56 = APPROVAL_ROLE ( '' ) ;
#57 = CALENDAR_DATE ( 2021, 30, 11 ) ;
#58 = EDGE_LOOP ( 'NONE', ( #259 ) ) ;
#59 = CC_DESIGN_DATE_AND_TIME_ASSIGNMENT ( #239, #30, ( #100 ) ) ;
#60 = DIRECTION ( 'NONE',  ( -3.491481338843133355E-15, 1.224646799147353454E-16, -1.000000000000000000 ) ) ;
#61 = AXIS2_PLACEMENT_3D ( 'NONE', #87, #117, #274 ) ;
#62 = DIRECTION ( 'NONE',  ( 3.491481338843133355E-15, -1.224646799147353454E-16, 1.000000000000000000 ) ) ;
#63 = CARTESIAN_POINT ( 'NONE',  ( 7.935108543721707958E-14, -2.783261411380038722E-15, 22.72705414587988315 ) ) ;
#64 = VERTEX_POINT ( 'NONE', #142 ) ;
#65 = AXIS2_PLACEMENT_3D ( 'NONE', #139, #208, #191 ) ;
#66 = CIRCLE ( 'NONE', #4, 1.049999999999999156 ) ;
#67 = DIRECTION ( 'NONE',  ( 3.491481338843133355E-15, -1.224646799147353454E-16, 1.000000000000000000 ) ) ;
#68 = VERTEX_POINT ( 'NONE', #167 ) ;
#69 = DATE_AND_TIME ( #275, #234 ) ;
#70 = ORIENTED_EDGE ( 'NONE', *, *, #283, .F. ) ;
#71 = LOCAL_TIME ( 10, 1, 42.00000000000000000, #80 ) ;
#72 = DESIGN_CONTEXT ( 'detailed design', #135, 'design' ) ;
#73 = EDGE_LOOP ( 'NONE', ( #197 ) ) ;
#74 = PERSON_AND_ORGANIZATION ( #143, #170 ) ;
#75 = ORIENTED_EDGE ( 'NONE', *, *, #260, .F. ) ;
#76 = COORDINATED_UNIVERSAL_TIME_OFFSET ( 1, 0, .AHEAD. ) ;
#77 = CARTESIAN_POINT ( 'NONE',  ( 8.728703347107827472E-16, -3.061616997868381785E-17, 0.2499999999999998335 ) ) ;
#78 = APPROVAL_DATE_TIME ( #177, #119 ) ;
#79 = DIRECTION ( 'NONE',  ( -3.491481338843133355E-15, 1.224646799147353454E-16, -1.000000000000000000 ) ) ;
#80 = COORDINATED_UNIVERSAL_TIME_OFFSET ( 1, 0, .AHEAD. ) ;
#81 = AXIS2_PLACEMENT_3D ( 'NONE', #281, #67, #230 ) ;
#82 = ADVANCED_BREP_SHAPE_REPRESENTATION ( '954733', ( #36, #41, #127 ), #151 ) ;
#83 = EDGE_LOOP ( 'NONE', ( #48 ) ) ;
#84 = PERSON_AND_ORGANIZATION_ROLE ( 'classification_officer' ) ;
#85 = FACE_OUTER_BOUND ( 'NONE', #179, .T. ) ;
#86 = AXIS2_PLACEMENT_3D ( 'NONE', #63, #300, #1 ) ;
#87 = CARTESIAN_POINT ( 'NONE',  ( 0.0000000000000000000, 0.0000000000000000000, 0.0000000000000000000 ) ) ;
#88 = FACE_BOUND ( 'NONE', #184, .T. ) ;
#89 = CARTESIAN_POINT ( 'NONE',  ( 6.982962677686266711E-14, 1.049999999999998046, 20.00000000000000000 ) ) ;
#90 = FACE_OUTER_BOUND ( 'NONE', #270, .T. ) ;
#91 = CARTESIAN_POINT ( 'NONE',  ( 3.623617532978460736E-14, 1.049999999999997824, 10.37845310145380573 ) ) ;
#92 = APPROVAL ( #35, 'UNSPECIFIED' ) ;
#93 = CC_DESIGN_APPROVAL ( #92, ( #123 ) ) ;
#94 = CIRCLE ( 'NONE', #19, 1.268499999999999961 ) ;
#95 = ORIENTED_EDGE ( 'NONE', *, *, #217, .T. ) ;
#96 = EDGE_LOOP ( 'NONE', ( #75 ) ) ;
#97 = ADVANCED_FACE ( 'NONE', ( #182 ), #125, .F. ) ;
#98 = APPLICATION_CONTEXT ( 'configuration controlled 3d designs of mechanical parts and assemblies' ) ;
#99 = CARTESIAN_POINT ( 'NONE',  ( -3.349732453214468590E-31, 1.174927982914079146E-32, -9.594015055868430641E-17 ) ) ;
#100 = PRODUCT_DEFINITION ( 'UNKNOWN', '', #123, #72 ) ;
#101 = EDGE_LOOP ( 'NONE', ( #288 ) ) ;
#102 =( NAMED_UNIT ( * ) SI_UNIT ( $, .STERADIAN. ) SOLID_ANGLE_UNIT ( ) );
#103 = CARTESIAN_POINT ( 'NONE',  ( 3.623617532978460736E-14, -1.270993937079632640E-15, 10.37845310145380573 ) ) ;
#104 = APPROVAL_STATUS ( 'not_yet_approved' ) ;
#105 = ORIENTED_EDGE ( 'NONE', *, *, #157, .T. ) ;
#106 = PERSON_AND_ORGANIZATION_ROLE ( 'design_owner' ) ;
#107 = CIRCLE ( 'NONE', #282, 1.080384493975580451 ) ;
#108 = AXIS2_PLACEMENT_3D ( 'NONE', #77, #7, #293 ) ;
#109 = EDGE_LOOP ( 'NONE', ( #147 ) ) ;
#110 = EDGE_CURVE ( 'NONE', #255, #255, #6, .T. ) ;
#111 = DIRECTION ( 'NONE',  ( 0.0000000000000000000, 1.000000000000000000, 0.0000000000000000000 ) ) ;
#112 = APPROVAL_PERSON_ORGANIZATION ( #121, #54, #232 ) ;
#113 = CYLINDRICAL_SURFACE ( 'NONE', #61, 1.049999999999999822 ) ;
#114 = APPROVAL_DATE_TIME ( #69, #54 ) ;
#115 = CC_DESIGN_DATE_AND_TIME_ASSIGNMENT ( #244, #221, ( #227 ) ) ;
#116 = CONICAL_SURFACE ( 'NONE', #285, 1.268499999999998629, 0.5235987755982925984 ) ;
#117 = DIRECTION ( 'NONE',  ( -3.491481338843133355E-15, 1.224646799147353454E-16, -1.000000000000000000 ) ) ;
#118 = CARTESIAN_POINT ( 'NONE',  ( 3.623617532978460736E-14, -1.270993937079632640E-15, 10.37845310145380573 ) ) ;
#119 = APPROVAL ( #104, 'UNSPECIFIED' ) ;
#120 = CARTESIAN_POINT ( 'NONE',  ( 2.129803616694311221E-13, 1.199999999999993960, 61.00000000000000000 ) ) ;
#121 = PERSON_AND_ORGANIZATION ( #143, #170 ) ;
#122 = PRODUCT_RELATED_PRODUCT_CATEGORY ( 'detail', '', ( #168 ) ) ;
#123 = PRODUCT_DEFINITION_FORMATION_WITH_SPECIFIED_SOURCE ( 'ANY', '', #168, .NOT_KNOWN. ) ;
#124 = CONICAL_SURFACE ( 'NONE', #81, 1.499999999999995559, 0.1745329251994266473 ) ;
#125 = PLANE ( 'NONE',  #261 ) ;
#126 = CALENDAR_DATE ( 2021, 30, 11 ) ;
#127 = AXIS2_PLACEMENT_3D ( 'NONE', #297, #180, #263 ) ;
#128 = EDGE_LOOP ( 'NONE', ( #152 ) ) ;
#129 = SECURITY_CLASSIFICATION_LEVEL ( 'unclassified' ) ;
#130 = DIRECTION ( 'NONE',  ( -3.491481338843133355E-15, 1.224646799147353454E-16, -1.000000000000000000 ) ) ;
#131 = APPROVAL_DATE_TIME ( #265, #92 ) ;
#132 = DIRECTION ( 'NONE',  ( 4.275831445896959482E-31, 1.000000000000000000, 1.224646799147353454E-16 ) ) ;
#133 = PERSON_AND_ORGANIZATION ( #143, #170 ) ;
#134 = DIRECTION ( 'NONE',  ( 3.491481338843133355E-15, -1.224646799147353454E-16, 1.000000000000000000 ) ) ;
#135 = APPLICATION_CONTEXT ( 'configuration controlled 3d designs of mechanical parts and assemblies' ) ;
#136 =( NAMED_UNIT ( * ) PLANE_ANGLE_UNIT ( ) SI_UNIT ( $, .RADIAN. ) );
#137 = CONICAL_SURFACE ( 'NONE', #236, 1.049999999999999156, 0.5235987755982929315 ) ;
#138 = FACE_BOUND ( 'NONE', #55, .T. ) ;
#139 = CARTESIAN_POINT ( 'NONE',  ( -6.699464906428937180E-31, 2.349855965828158291E-32, -1.918803011173686128E-16 ) ) ;
#140 = DIRECTION ( 'NONE',  ( 3.491481338843133355E-15, -1.224646799147353454E-16, 1.000000000000000000 ) ) ;
#141 = AXIS2_PLACEMENT_3D ( 'NONE', #240, #37, #132 ) ;
#142 = CARTESIAN_POINT ( 'NONE',  ( 7.104220552055901835E-14, 1.080384493975578009, 20.34729635533384595 ) ) ;
#143 = PERSON ( 'UNSPECIFIED', 'UNSPECIFIED', 'UNSPECIFIED', ('UNSPECIFIED'), ('UNSPECIFIED'), ('UNSPECIFIED') ) ;
#144 = VERTEX_POINT ( 'NONE', #3 ) ;
#145 = CIRCLE ( 'NONE', #14, 1.268499999999999961 ) ;
#146 = CC_DESIGN_PERSON_AND_ORGANIZATION_ASSIGNMENT ( #133, #199, ( #100 ) ) ;
#147 = ORIENTED_EDGE ( 'NONE', *, *, #283, .T. ) ;
#148 = CALENDAR_DATE ( 2021, 30, 11 ) ;
#149 = CARTESIAN_POINT ( 'NONE',  ( 6.982962677686266711E-14, -2.449293598294706907E-15, 20.00000000000000000 ) ) ;
#150 = PERSON_AND_ORGANIZATION_ROLE ( 'design_supplier' ) ;
#151 =( GEOMETRIC_REPRESENTATION_CONTEXT ( 3 ) GLOBAL_UNCERTAINTY_ASSIGNED_CONTEXT ( ( #258 ) ) GLOBAL_UNIT_ASSIGNED_CONTEXT ( ( #246, #136, #102 ) ) REPRESENTATION_CONTEXT ( 'NONE', 'WORKASPACE' ) );
#152 = ORIENTED_EDGE ( 'NONE', *, *, #260, .T. ) ;
#153 = CIRCLE ( 'NONE', #269, 1.200000000000001510 ) ;
#154 = APPROVAL_ROLE ( '' ) ;
#155 = CARTESIAN_POINT ( 'NONE',  ( 3.491481338843133355E-14, -1.224646799147353454E-15, 10.00000000000000000 ) ) ;
#156 = PERSON_AND_ORGANIZATION ( #143, #170 ) ;
#157 = EDGE_CURVE ( 'NONE', #211, #211, #153, .T. ) ;
#158 = CARTESIAN_POINT ( 'NONE',  ( 7.104220552055901835E-14, -2.491825135286220620E-15, 20.34729635533384595 ) ) ;
#159 = CARTESIAN_POINT ( 'NONE',  ( 8.728703347107827472E-16, -3.061616997868381785E-17, 0.2499999999999998335 ) ) ;
#160 = CC_DESIGN_PERSON_AND_ORGANIZATION_ASSIGNMENT ( #74, #106, ( #168 ) ) ;
#161 = DIRECTION ( 'NONE',  ( -4.275831445896959482E-31, -1.000000000000000000, -1.224646799147353454E-16 ) ) ;
#162 = DIRECTION ( 'NONE',  ( 0.0000000000000000000, 1.000000000000000000, 0.0000000000000000000 ) ) ;
#163 = DIRECTION ( 'NONE',  ( 4.275831445896959482E-31, 1.000000000000000000, 1.224646799147353454E-16 ) ) ;
#164 = CIRCLE ( 'NONE', #28, 1.050000000000000266 ) ;
#165 = FACE_OUTER_BOUND ( 'NONE', #73, .T. ) ;
#166 = EDGE_CURVE ( 'NONE', #144, #144, #94, .T. ) ;
#167 = CARTESIAN_POINT ( 'NONE',  ( 3.491481338843133355E-14, 1.268499999999998629, 10.00000000000000000 ) ) ;
#168 = PRODUCT ( '954733', '954733', '', ( #50 ) ) ;
#169 = EDGE_LOOP ( 'NONE', ( #13 ) ) ;
#170 = ORGANIZATION ( 'UNSPECIFIED', 'UNSPECIFIED', '' ) ;
#171 = CC_DESIGN_PERSON_AND_ORGANIZATION_ASSIGNMENT ( #219, #185, ( #123 ) ) ;
#172 = ADVANCED_FACE ( 'NONE', ( #178, #264 ), #51, .T. ) ;
#173 = EDGE_LOOP ( 'NONE', ( #271 ) ) ;
#174 = APPROVAL_PERSON_ORGANIZATION ( #291, #92, #154 ) ;
#175 = CLOSED_SHELL ( 'NONE', ( #97, #212, #172, #280 ) ) ;
#176 = DIRECTION ( 'NONE',  ( 0.0000000000000000000, 1.000000000000000000, 0.0000000000000000000 ) ) ;
#177 = DATE_AND_TIME ( #126, #187 ) ;
#178 = FACE_OUTER_BOUND ( 'NONE', #266, .T. ) ;
#179 = EDGE_LOOP ( 'NONE', ( #5 ) ) ;
#180 = DIRECTION ( 'NONE',  ( 0.0000000000000000000, 0.0000000000000000000, 1.000000000000000000 ) ) ;
#181 = APPROVAL_PERSON_ORGANIZATION ( #156, #119, #56 ) ;
#182 = FACE_OUTER_BOUND ( 'NONE', #109, .T. ) ;
#183 = COORDINATED_UNIVERSAL_TIME_OFFSET ( 1, 0, .AHEAD. ) ;
#184 = EDGE_LOOP ( 'NONE', ( #70 ) ) ;
#185 = PERSON_AND_ORGANIZATION_ROLE ( 'creator' ) ;
#186 = DIRECTION ( 'NONE',  ( -4.554820522792048379E-31, -1.000000000000000000, -1.282068000574109804E-16 ) ) ;
#187 = LOCAL_TIME ( 10, 1, 42.00000000000000000, #33 ) ;
#188 = DIRECTION ( 'NONE',  ( -3.491481338843133355E-15, 1.224646799147353454E-16, -1.000000000000000000 ) ) ;
#189 = DIRECTION ( 'NONE',  ( 0.0000000000000000000, 1.000000000000000000, 0.0000000000000000000 ) ) ;
#190 = CARTESIAN_POINT ( 'NONE',  ( 3.491481338843133355E-14, 9.512226421532815922E-33, 10.00000000000000000 ) ) ;
#191 = DIRECTION ( 'NONE',  ( 4.275831445896960358E-31, 1.000000000000000000, 1.224646799147353454E-16 ) ) ;
#192 = ADVANCED_FACE ( 'NONE', ( #32, #254 ), #42, .F. ) ;
#193 = VERTEX_POINT ( 'NONE', #91 ) ;
#194 = ADVANCED_FACE ( 'NONE', ( #273, #225 ), #124, .T. ) ;
#195 = CIRCLE ( 'NONE', #53, 1.500000000000001332 ) ;
#196 = ADVANCED_FACE ( 'NONE', ( #22, #229 ), #17, .T. ) ;
#197 = ORIENTED_EDGE ( 'NONE', *, *, #12, .T. ) ;
#198 = CARTESIAN_POINT ( 'NONE',  ( 2.129803616694311221E-13, -7.470345474798856659E-15, 61.00000000000000000 ) ) ;
#199 = PERSON_AND_ORGANIZATION_ROLE ( 'creator' ) ;
#200 = EDGE_LOOP ( 'NONE', ( #34 ) ) ;
#201 = DIRECTION ( 'NONE',  ( -3.491481338843133355E-15, 1.224646799147353454E-16, -1.000000000000000000 ) ) ;
#202 = CARTESIAN_POINT ( 'NONE',  ( 7.935108543721707958E-14, 1.499999999999992673, 22.72705414587988315 ) ) ;
#203 = FACE_BOUND ( 'NONE', #296, .T. ) ;
#204 = PERSON_AND_ORGANIZATION ( #143, #170 ) ;
#205 = DIRECTION ( 'NONE',  ( 4.275831445896959482E-31, 1.000000000000000000, 1.224646799147353454E-16 ) ) ;
#206 = DIRECTION ( 'NONE',  ( -3.491481338843133355E-15, 1.224646799147353454E-16, -1.000000000000000000 ) ) ;
#207 = CC_DESIGN_APPROVAL ( #119, ( #100 ) ) ;
#208 = DIRECTION ( 'NONE',  ( -3.491481338843133355E-15, 1.224646799147353454E-16, -1.000000000000000000 ) ) ;
#209 = FACE_OUTER_BOUND ( 'NONE', #101, .T. ) ;
#210 = DIRECTION ( 'NONE',  ( 3.491481338843133355E-15, -1.224646799147353454E-16, 1.000000000000000000 ) ) ;
#211 = VERTEX_POINT ( 'NONE', #120 ) ;
#212 = ADVANCED_FACE ( 'NONE', ( #88, #85 ), #116, .T. ) ;
#213 = DIRECTION ( 'NONE',  ( -4.275831445896959482E-31, -1.000000000000000000, -1.224646799147353454E-16 ) ) ;
#214 = VERTEX_POINT ( 'NONE', #8 ) ;
#215 = DIRECTION ( 'NONE',  ( -3.491481338843133355E-15, 1.224646799147353454E-16, -1.000000000000000000 ) ) ;
#216 = PERSON_AND_ORGANIZATION ( #143, #170 ) ;
#217 = EDGE_CURVE ( 'NONE', #193, #193, #66, .T. ) ;
#218 = EDGE_LOOP ( 'NONE', ( #29 ) ) ;
#219 = PERSON_AND_ORGANIZATION ( #143, #170 ) ;
#220 = FACE_OUTER_BOUND ( 'NONE', #222, .T. ) ;
#221 = DATE_TIME_ROLE ( 'classification_date' ) ;
#222 = EDGE_LOOP ( 'NONE', ( #235 ) ) ;
#223 = CARTESIAN_POINT ( 'NONE',  ( 2.119329172677781757E-13, -7.433606070824434221E-15, 60.69999999999999574 ) ) ;
#224 = ADVANCED_FACE ( 'NONE', ( #209 ), #247, .F. ) ;
#225 = FACE_OUTER_BOUND ( 'NONE', #83, .T. ) ;
#226 = SHAPE_DEFINITION_REPRESENTATION ( #287, #82 ) ;
#227 = SECURITY_CLASSIFICATION ( '', '', #129 ) ;
#228 = DIRECTION ( 'NONE',  ( -3.491481338843133355E-15, 1.224646799147353454E-16, -1.000000000000000000 ) ) ;
#229 = FACE_OUTER_BOUND ( 'NONE', #128, .T. ) ;
#230 = DIRECTION ( 'NONE',  ( 0.0000000000000000000, -1.000000000000000000, 0.0000000000000000000 ) ) ;
#231 = CONICAL_SURFACE ( 'NONE', #251, 1.200000000000001510, 0.7853981633974453924 ) ;
#232 = APPROVAL_ROLE ( '' ) ;
#233 = VERTEX_POINT ( 'NONE', #202 ) ;
#234 = LOCAL_TIME ( 10, 1, 42.00000000000000000, #248 ) ;
#235 = ORIENTED_EDGE ( 'NONE', *, *, #166, .F. ) ;
#236 = AXIS2_PLACEMENT_3D ( 'NONE', #103, #201, #38 ) ;
#237 = EDGE_CURVE ( 'NONE', #233, #233, #2, .T. ) ;
#238 = DIRECTION ( 'NONE',  ( 0.0000000000000000000, 1.000000000000000000, 0.0000000000000000000 ) ) ;
#239 = DATE_AND_TIME ( #148, #71 ) ;
#240 = CARTESIAN_POINT ( 'NONE',  ( 0.0000000000000000000, 0.0000000000000000000, 0.0000000000000000000 ) ) ;
#241 = LOCAL_TIME ( 10, 1, 42.00000000000000000, #183 ) ;
#242 = ORIENTED_EDGE ( 'NONE', *, *, #110, .F. ) ;
#243 = DIRECTION ( 'NONE',  ( -3.491481338843133355E-15, 1.224646799147353454E-16, -1.000000000000000000 ) ) ;
#244 = DATE_AND_TIME ( #57, #241 ) ;
#245 = DIRECTION ( 'NONE',  ( 0.0000000000000000000, 1.000000000000000000, 0.0000000000000000000 ) ) ;
#246 =( LENGTH_UNIT ( ) NAMED_UNIT ( * ) SI_UNIT ( .MILLI., .METRE. ) );
#247 = PLANE ( 'NONE',  #31 ) ;
#248 = COORDINATED_UNIVERSAL_TIME_OFFSET ( 1, 0, .AHEAD. ) ;
#249 = DIRECTION ( 'NONE',  ( -3.491481338843133355E-15, 1.224646799147353454E-16, -1.000000000000000000 ) ) ;
#250 = PLANE ( 'NONE',  #18 ) ;
#251 = AXIS2_PLACEMENT_3D ( 'NONE', #45, #228, #189 ) ;
#252 = CARTESIAN_POINT ( 'NONE',  ( 3.491481338843133355E-14, 9.512226421532815922E-33, 10.00000000000000000 ) ) ;
#253 = AXIS2_PLACEMENT_3D ( 'NONE', #21, #299, #277 ) ;
#254 = FACE_OUTER_BOUND ( 'NONE', #200, .T. ) ;
#255 = VERTEX_POINT ( 'NONE', #46 ) ;
#256 = CIRCLE ( 'NONE', #65, 1.124162432702594083 ) ;
#257 = ADVANCED_FACE ( 'NONE', ( #43, #138 ), #231, .T. ) ;
#258 = UNCERTAINTY_MEASURE_WITH_UNIT (LENGTH_MEASURE( 1.000000000000000082E-05 ), #246, 'distance_accuracy_value', 'NONE');
#259 = ORIENTED_EDGE ( 'NONE', *, *, #237, .F. ) ;
#260 = EDGE_CURVE ( 'NONE', #268, #268, #195, .T. ) ;
#261 = AXIS2_PLACEMENT_3D ( 'NONE', #99, #134, #213 ) ;
#262 = DIRECTION ( 'NONE',  ( -3.491481338843133355E-15, 1.224646799147353454E-16, -1.000000000000000000 ) ) ;
#263 = DIRECTION ( 'NONE',  ( 1.000000000000000000, 0.0000000000000000000, 0.0000000000000000000 ) ) ;
#264 = FACE_OUTER_BOUND ( 'NONE', #49, .T. ) ;
#265 = DATE_AND_TIME ( #52, #26 ) ;
#266 = EDGE_LOOP ( 'NONE', ( #242 ) ) ;
#267 = CC_DESIGN_SECURITY_CLASSIFICATION ( #227, ( #123 ) ) ;
#268 = VERTEX_POINT ( 'NONE', #272 ) ;
#269 = AXIS2_PLACEMENT_3D ( 'NONE', #198, #79, #290 ) ;
#270 = EDGE_LOOP ( 'NONE', ( #292 ) ) ;
#271 = ORIENTED_EDGE ( 'NONE', *, *, #23, .F. ) ;
#272 = CARTESIAN_POINT ( 'NONE',  ( 2.119329172677781757E-13, 1.499999999999994005, 60.69999999999999574 ) ) ;
#273 = FACE_BOUND ( 'NONE', #173, .T. ) ;
#274 = DIRECTION ( 'NONE',  ( 4.275831445896959482E-31, 1.000000000000000000, 1.224646799147353207E-16 ) ) ;
#275 = CALENDAR_DATE ( 2021, 30, 11 ) ;
#276 = CC_DESIGN_PERSON_AND_ORGANIZATION_ASSIGNMENT ( #216, #84, ( #227 ) ) ;
#277 = DIRECTION ( 'NONE',  ( 4.275831445896959482E-31, 1.000000000000000000, 1.224646799147353700E-16 ) ) ;
#278 = ADVANCED_FACE ( 'NONE', ( #90, #165 ), #113, .T. ) ;
#279 = PLANE ( 'NONE',  #301 ) ;
#280 = ADVANCED_FACE ( 'NONE', ( #40 ), #250, .T. ) ;
#281 = CARTESIAN_POINT ( 'NONE',  ( 7.935108543721707958E-14, -2.783261411380038722E-15, 22.72705414587988315 ) ) ;
#282 = AXIS2_PLACEMENT_3D ( 'NONE', #158, #262, #245 ) ;
#283 = EDGE_CURVE ( 'NONE', #214, #214, #256, .T. ) ;
#284 = CC_DESIGN_APPROVAL ( #54, ( #227 ) ) ;
#285 = AXIS2_PLACEMENT_3D ( 'NONE', #159, #210, #186 ) ;
#286 = EDGE_LOOP ( 'NONE', ( #15 ) ) ;
#287 = PRODUCT_DEFINITION_SHAPE ( 'NONE', 'NONE',  #100 ) ;
#288 = ORIENTED_EDGE ( 'NONE', *, *, #157, .F. ) ;
#289 = APPLICATION_PROTOCOL_DEFINITION ( 'international standard', 'config_control_design', 1994, #98 ) ;
#290 = DIRECTION ( 'NONE',  ( 0.0000000000000000000, 1.000000000000000000, 0.0000000000000000000 ) ) ;
#291 = PERSON_AND_ORGANIZATION ( #143, #170 ) ;
#292 = ORIENTED_EDGE ( 'NONE', *, *, #217, .F. ) ;
#293 = DIRECTION ( 'NONE',  ( 4.554820522792048379E-31, 1.000000000000000000, 1.282068000574109804E-16 ) ) ;
#294 = CLOSED_SHELL ( 'NONE', ( #298, #44, #278, #192, #194, #196, #257, #224 ) ) ;
#295 = AXIS2_PLACEMENT_3D ( 'NONE', #16, #188, #205 ) ;
#296 = EDGE_LOOP ( 'NONE', ( #95 ) ) ;
#297 = CARTESIAN_POINT ( 'NONE',  ( 0.0000000000000000000, 0.0000000000000000000, 0.0000000000000000000 ) ) ;
#298 = ADVANCED_FACE ( 'NONE', ( #302 ), #279, .F. ) ;
#299 = DIRECTION ( 'NONE',  ( -3.491481338843133355E-15, 1.224646799147353454E-16, -1.000000000000000000 ) ) ;
#300 = DIRECTION ( 'NONE',  ( -3.491481338843133355E-15, 1.224646799147353454E-16, -1.000000000000000000 ) ) ;
#301 = AXIS2_PLACEMENT_3D ( 'NONE', #190, #140, #20 ) ;
#302 = FACE_OUTER_BOUND ( 'NONE', #169, .T. ) ;
#303 = VERTEX_POINT ( 'NONE', #89 ) ;
ENDSEC;
END-ISO-10303-21;
