ISO-10303-21;
HEADER;
FILE_DESCRIPTION (( 'STEP AP203' ),
    '1' );
FILE_NAME ('954731.step',
    '2021-11-30T08:32:46',
    ( '' ),
    ( '' ),
    'SwSTEP 2.0',
    'SolidWorks 2019',
    '' );
FILE_SCHEMA (( 'CONFIG_CONTROL_DESIGN' ));
ENDSEC;

DATA;
#1 = ADVANCED_FACE ( 'NONE', ( #259 ), #190, .F. ) ;
#2 = DIRECTION ( 'NONE',  ( 0.0000000000000000000, 1.000000000000000000, 0.0000000000000000000 ) ) ;
#3 = CARTESIAN_POINT ( 'NONE',  ( 1.745740669421566678E-13, -6.123233995736766085E-15, 50.00000000000000000 ) ) ;
#4 = AXIS2_PLACEMENT_3D ( 'NONE', #7, #195, #245 ) ;
#5 =( GEOMETRIC_REPRESENTATION_CONTEXT ( 3 ) GLOBAL_UNCERTAINTY_ASSIGNED_CONTEXT ( ( #124 ) ) GLOBAL_UNIT_ASSIGNED_CONTEXT ( ( #119, #203, #294 ) ) REPRESENTATION_CONTEXT ( 'NONE', 'WORKASPACE' ) );
#6 = DIRECTION ( 'NONE',  ( 3.491481338843133355E-15, -1.224646799147353207E-16, 1.000000000000000000 ) ) ;
#7 = CARTESIAN_POINT ( 'NONE',  ( 1.745740669421566678E-13, -6.123233995736766085E-15, 50.00000000000000000 ) ) ;
#8 = DIRECTION ( 'NONE',  ( 0.0000000000000000000, -1.000000000000000000, 0.0000000000000000000 ) ) ;
#9 = CARTESIAN_POINT ( 'NONE',  ( 1.735266225405037467E-13, 1.499999999999995559, 49.70000000000000284 ) ) ;
#10 = DIRECTION ( 'NONE',  ( 0.0000000000000000000, 1.000000000000000000, 0.0000000000000000000 ) ) ;
#11 = COORDINATED_UNIVERSAL_TIME_OFFSET ( 1, 0, .AHEAD. ) ;
#12 = EDGE_CURVE ( 'NONE', #238, #238, #262, .T. ) ;
#13 = CC_DESIGN_APPROVAL ( #99, ( #184 ) ) ;
#14 = CARTESIAN_POINT ( 'NONE',  ( 7.303488809519617093E-14, 1.499999999999994005, 20.91802332799966280 ) ) ;
#15 = LOCAL_TIME ( 9, 32, 46.00000000000000000, #11 ) ;
#16 = COORDINATED_UNIVERSAL_TIME_OFFSET ( 1, 0, .AHEAD. ) ;
#17 = CALENDAR_DATE ( 2021, 30, 11 ) ;
#18 = VERTEX_POINT ( 'NONE', #9 ) ;
#19 = DATE_AND_TIME ( #276, #171 ) ;
#20 = PRODUCT ( '954731', '954731', '', ( #102 ) ) ;
#21 = VERTEX_POINT ( 'NONE', #14 ) ;
#22 = CC_DESIGN_PERSON_AND_ORGANIZATION_ASSIGNMENT ( #293, #72, ( #184 ) ) ;
#23 = EDGE_LOOP ( 'NONE', ( #170 ) ) ;
#24 = AXIS2_PLACEMENT_3D ( 'NONE', #53, #264, #129 ) ;
#25 = CARTESIAN_POINT ( 'NONE',  ( 2.855775899875450203E-14, -1.001671346759488102E-15, 8.179267258583379885 ) ) ;
#26 = DIRECTION ( 'NONE',  ( 3.491481338843133355E-15, -1.224646799147353207E-16, 1.000000000000000000 ) ) ;
#27 = ADVANCED_FACE ( 'NONE', ( #35, #134 ), #220, .F. ) ;
#28 = PLANE ( 'NONE',  #177 ) ;
#29 = EDGE_CURVE ( 'NONE', #252, #252, #31, .T. ) ;
#30 = CARTESIAN_POINT ( 'NONE',  ( -1.708541930064633058E-31, 5.992758381907823182E-33, -4.893458576040222536E-17 ) ) ;
#31 = CIRCLE ( 'NONE', #175, 0.7991624327025946828 ) ;
#32 = CARTESIAN_POINT ( 'NONE',  ( 2.793185071074506684E-14, 7.075116774707298677E-33, 8.000000000000000000 ) ) ;
#33 = EDGE_LOOP ( 'NONE', ( #299 ) ) ;
#34 = DIRECTION ( 'NONE',  ( -3.491481338843133355E-15, 1.224646799147353207E-16, -1.000000000000000000 ) ) ;
#35 = FACE_OUTER_BOUND ( 'NONE', #75, .T. ) ;
#36 = PLANE ( 'NONE',  #213 ) ;
#37 = CC_DESIGN_PERSON_AND_ORGANIZATION_ASSIGNMENT ( #160, #95, ( #184 ) ) ;
#38 = APPLICATION_CONTEXT ( 'configuration controlled 3d designs of mechanical parts and assemblies' ) ;
#39 = DIRECTION ( 'NONE',  ( 0.0000000000000000000, 1.000000000000000000, 0.0000000000000000000 ) ) ;
#40 = COORDINATED_UNIVERSAL_TIME_OFFSET ( 1, 0, .AHEAD. ) ;
#41 = CONICAL_SURFACE ( 'NONE', #176, 0.9434999999999991172, 0.5235987755982930425 ) ;
#42 = PERSON_AND_ORGANIZATION_ROLE ( 'creator' ) ;
#43 = FACE_OUTER_BOUND ( 'NONE', #269, .T. ) ;
#44 = DATE_TIME_ROLE ( 'creation_date' ) ;
#45 = DIRECTION ( 'NONE',  ( -3.491481338843133355E-15, 1.224646799147353207E-16, -1.000000000000000000 ) ) ;
#46 = CLOSED_SHELL ( 'NONE', ( #1, #211, #232, #27, #123, #285, #185, #51 ) ) ;
#47 = APPROVAL_STATUS ( 'not_yet_approved' ) ;
#48 = AXIS2_PLACEMENT_3D ( 'NONE', #196, #223, #284 ) ;
#49 = CIRCLE ( 'NONE', #267, 0.9434999999999991172 ) ;
#50 = ADVANCED_FACE ( 'NONE', ( #248 ), #115, .T. ) ;
#51 = ADVANCED_FACE ( 'NONE', ( #65 ), #36, .F. ) ;
#52 = CARTESIAN_POINT ( 'NONE',  ( 5.935518276033326704E-14, 0.8399999999999974154, 17.00000000000000000 ) ) ;
#53 = CARTESIAN_POINT ( 'NONE',  ( 5.935518276033326704E-14, -2.081899558550500280E-15, 17.00000000000000000 ) ) ;
#54 = LOCAL_TIME ( 9, 32, 46.00000000000000000, #274 ) ;
#55 = FACE_OUTER_BOUND ( 'NONE', #89, .T. ) ;
#56 = CARTESIAN_POINT ( 'NONE',  ( -3.417083860129266115E-31, 1.198551676381564636E-32, -9.786917152080445072E-17 ) ) ;
#57 = FACE_OUTER_BOUND ( 'NONE', #297, .T. ) ;
#58 = AXIS2_PLACEMENT_3D ( 'NONE', #287, #265, #39 ) ;
#59 = CARTESIAN_POINT ( 'NONE',  ( 0.0000000000000000000, 0.0000000000000000000, 0.0000000000000000000 ) ) ;
#60 = DIRECTION ( 'NONE',  ( 0.0000000000000000000, 1.000000000000000000, 0.0000000000000000000 ) ) ;
#61 = MANIFOLD_SOLID_BREP ( 'Corps-Déplacer/Copier1[2]', #174 ) ;
#62 = CARTESIAN_POINT ( 'NONE',  ( 2.793185071074506684E-14, -9.797174393178825657E-16, 8.000000000000000000 ) ) ;
#63 = MANIFOLD_SOLID_BREP ( 'Corps-Déplacer/Copier1[1]', #46 ) ;
#64 = ADVANCED_FACE ( 'NONE', ( #210, #55 ), #41, .T. ) ;
#65 = FACE_OUTER_BOUND ( 'NONE', #98, .T. ) ;
#66 = EDGE_LOOP ( 'NONE', ( #291 ) ) ;
#67 = FACE_BOUND ( 'NONE', #169, .T. ) ;
#68 = CALENDAR_DATE ( 2021, 30, 11 ) ;
#69 = CARTESIAN_POINT ( 'NONE',  ( 0.0000000000000000000, 0.0000000000000000000, 0.0000000000000000000 ) ) ;
#70 = APPROVAL_DATE_TIME ( #188, #237 ) ;
#71 = CARTESIAN_POINT ( 'NONE',  ( 0.0000000000000000000, 0.0000000000000000000, 0.0000000000000000000 ) ) ;
#72 = PERSON_AND_ORGANIZATION_ROLE ( 'design_supplier' ) ;
#73 = VERTEX_POINT ( 'NONE', #231 ) ;
#74 = ORIENTED_EDGE ( 'NONE', *, *, #179, .T. ) ;
#75 = EDGE_LOOP ( 'NONE', ( #300 ) ) ;
#76 = ORIENTED_EDGE ( 'NONE', *, *, #29, .T. ) ;
#77 = EDGE_LOOP ( 'NONE', ( #191 ) ) ;
#78 = ORIENTED_EDGE ( 'NONE', *, *, #12, .F. ) ;
#79 = AXIS2_PLACEMENT_3D ( 'NONE', #132, #224, #159 ) ;
#80 = FACE_BOUND ( 'NONE', #208, .T. ) ;
#81 = DIRECTION ( 'NONE',  ( -4.275831445896958607E-31, -1.000000000000000000, -1.224646799147353207E-16 ) ) ;
#82 = CC_DESIGN_DATE_AND_TIME_ASSIGNMENT ( #19, #44, ( #152 ) ) ;
#83 = LOCAL_TIME ( 9, 32, 46.00000000000000000, #40 ) ;
#84 = DIRECTION ( 'NONE',  ( 4.082522404636433960E-31, 1.000000000000000000, 1.149127898765771580E-16 ) ) ;
#85 = FACE_OUTER_BOUND ( 'NONE', #242, .T. ) ;
#86 = PERSON ( 'UNSPECIFIED', 'UNSPECIFIED', 'UNSPECIFIED', ('UNSPECIFIED'), ('UNSPECIFIED'), ('UNSPECIFIED') ) ;
#87 = PERSON_AND_ORGANIZATION_ROLE ( 'classification_officer' ) ;
#88 = EDGE_CURVE ( 'NONE', #94, #94, #283, .T. ) ;
#89 = EDGE_LOOP ( 'NONE', ( #133 ) ) ;
#90 = APPROVAL_STATUS ( 'not_yet_approved' ) ;
#91 = AXIS2_PLACEMENT_3D ( 'NONE', #207, #143, #151 ) ;
#92 = CIRCLE ( 'NONE', #48, 1.500000000000001554 ) ;
#93 = CC_DESIGN_SECURITY_CLASSIFICATION ( #222, ( #184 ) ) ;
#94 = VERTEX_POINT ( 'NONE', #163 ) ;
#95 = PERSON_AND_ORGANIZATION_ROLE ( 'creator' ) ;
#96 = DIRECTION ( 'NONE',  ( 0.0000000000000000000, 0.0000000000000000000, 1.000000000000000000 ) ) ;
#97 = CARTESIAN_POINT ( 'NONE',  ( 2.793185071074506684E-14, 0.9434999999999991172, 8.000000000000000000 ) ) ;
#98 = EDGE_LOOP ( 'NONE', ( #282 ) ) ;
#99 = APPROVAL ( #47, 'UNSPECIFIED' ) ;
#100 = DATE_AND_TIME ( #206, #15 ) ;
#101 = CONICAL_SURFACE ( 'NONE', #228, 0.9435000000000001164, 0.5235987755982982605 ) ;
#102 = MECHANICAL_CONTEXT ( 'NONE', #249, 'mechanical' ) ;
#103 = ORIENTED_EDGE ( 'NONE', *, *, #88, .T. ) ;
#104 = ORIENTED_EDGE ( 'NONE', *, *, #12, .T. ) ;
#105 = EDGE_CURVE ( 'NONE', #166, #166, #162, .T. ) ;
#106 = DIRECTION ( 'NONE',  ( 4.275831445896958607E-31, 1.000000000000000000, 1.224646799147353207E-16 ) ) ;
#107 = ORIENTED_EDGE ( 'NONE', *, *, #105, .T. ) ;
#108 = AXIS2_PLACEMENT_3D ( 'NONE', #71, #45, #139 ) ;
#109 = ADVANCED_FACE ( 'NONE', ( #148, #57 ), #127, .T. ) ;
#110 = AXIS2_PLACEMENT_3D ( 'NONE', #32, #197, #247 ) ;
#111 = DIRECTION ( 'NONE',  ( -3.491481338843133355E-15, 1.224646799147353207E-16, -1.000000000000000000 ) ) ;
#112 = AXIS2_PLACEMENT_3D ( 'NONE', #59, #111, #113 ) ;
#113 = DIRECTION ( 'NONE',  ( 4.275831445896959482E-31, 1.000000000000000000, 1.224646799147353207E-16 ) ) ;
#114 = DIRECTION ( 'NONE',  ( 0.0000000000000000000, 1.000000000000000000, 0.0000000000000000000 ) ) ;
#115 = PLANE ( 'NONE',  #214 ) ;
#116 = DIRECTION ( 'NONE',  ( 0.0000000000000000000, 1.000000000000000000, 0.0000000000000000000 ) ) ;
#117 = FACE_BOUND ( 'NONE', #189, .T. ) ;
#118 = APPROVAL_DATE_TIME ( #279, #270 ) ;
#119 =( LENGTH_UNIT ( ) NAMED_UNIT ( * ) SI_UNIT ( .MILLI., .METRE. ) );
#120 = APPROVAL_PERSON_ORGANIZATION ( #181, #270, #122 ) ;
#121 = CARTESIAN_POINT ( 'NONE',  ( 0.0000000000000000000, 0.7991624327025946828, 0.0000000000000000000 ) ) ;
#122 = APPROVAL_ROLE ( '' ) ;
#123 = ADVANCED_FACE ( 'NONE', ( #67, #289 ), #183, .T. ) ;
#124 = UNCERTAINTY_MEASURE_WITH_UNIT (LENGTH_MEASURE( 1.000000000000000082E-05 ), #119, 'distance_accuracy_value', 'NONE');
#125 = VERTEX_POINT ( 'NONE', #187 ) ;
#126 = AXIS2_PLACEMENT_3D ( 'NONE', #69, #96, #253 ) ;
#127 = CYLINDRICAL_SURFACE ( 'NONE', #112, 0.9434999999999996723 ) ;
#128 = EDGE_CURVE ( 'NONE', #275, #275, #149, .T. ) ;
#129 = DIRECTION ( 'NONE',  ( 0.0000000000000000000, 1.000000000000000000, 0.0000000000000000000 ) ) ;
#130 = EDGE_LOOP ( 'NONE', ( #209 ) ) ;
#131 = CARTESIAN_POINT ( 'NONE',  ( 0.0000000000000000000, 0.0000000000000000000, 0.0000000000000000000 ) ) ;
#132 = CARTESIAN_POINT ( 'NONE',  ( 2.793185071074506684E-14, -9.797174393178825657E-16, 8.000000000000000000 ) ) ;
#133 = ORIENTED_EDGE ( 'NONE', *, *, #225, .T. ) ;
#134 = FACE_OUTER_BOUND ( 'NONE', #135, .T. ) ;
#135 = EDGE_LOOP ( 'NONE', ( #243 ) ) ;
#136 = ORGANIZATION ( 'UNSPECIFIED', 'UNSPECIFIED', '' ) ;
#137 = DATE_TIME_ROLE ( 'classification_date' ) ;
#138 = PERSON_AND_ORGANIZATION ( #86, #136 ) ;
#139 = DIRECTION ( 'NONE',  ( 4.275831445896958607E-31, 1.000000000000000000, 1.224646799147353454E-16 ) ) ;
#140 = PERSON_AND_ORGANIZATION ( #86, #136 ) ;
#141 = CIRCLE ( 'NONE', #221, 0.9435000000000001164 ) ;
#142 = CC_DESIGN_PERSON_AND_ORGANIZATION_ASSIGNMENT ( #251, #87, ( #222 ) ) ;
#143 = DIRECTION ( 'NONE',  ( -3.491481338843133355E-15, 1.224646799147353207E-16, -1.000000000000000000 ) ) ;
#144 = CARTESIAN_POINT ( 'NONE',  ( 1.745740669421566678E-13, 1.199999999999995515, 50.00000000000000000 ) ) ;
#145 = DIRECTION ( 'NONE',  ( 3.491481338843133355E-15, -1.224646799147353207E-16, 1.000000000000000000 ) ) ;
#146 = DESIGN_CONTEXT ( 'detailed design', #38, 'design' ) ;
#147 = ORIENTED_EDGE ( 'NONE', *, *, #128, .T. ) ;
#148 = FACE_OUTER_BOUND ( 'NONE', #302, .T. ) ;
#149 = CIRCLE ( 'NONE', #4, 1.200000000000001732 ) ;
#150 = EDGE_LOOP ( 'NONE', ( #107 ) ) ;
#151 = DIRECTION ( 'NONE',  ( 4.275831445896958607E-31, 1.000000000000000000, 1.224646799147353207E-16 ) ) ;
#152 = PRODUCT_DEFINITION ( 'UNKNOWN', '', #184, #146 ) ;
#153 = CONICAL_SURFACE ( 'NONE', #168, 1.200000000000001732, 0.7853981633974453924 ) ;
#154 = CARTESIAN_POINT ( 'NONE',  ( 2.793185071074506684E-14, -9.797174393178825657E-16, 8.000000000000000000 ) ) ;
#155 = CARTESIAN_POINT ( 'NONE',  ( 8.728703347107829444E-16, -3.061616997868381785E-17, 0.2499999999999998890 ) ) ;
#156 = EDGE_CURVE ( 'NONE', #73, #73, #141, .T. ) ;
#157 = FACE_OUTER_BOUND ( 'NONE', #66, .T. ) ;
#158 = DIRECTION ( 'NONE',  ( -3.491481338843133355E-15, 1.224646799147353207E-16, -1.000000000000000000 ) ) ;
#159 = DIRECTION ( 'NONE',  ( 0.0000000000000000000, 1.000000000000000000, 0.0000000000000000000 ) ) ;
#160 = PERSON_AND_ORGANIZATION ( #86, #136 ) ;
#161 = ADVANCED_BREP_SHAPE_REPRESENTATION ( '954731', ( #63, #61, #126 ), #5 ) ;
#162 = CIRCLE ( 'NONE', #24, 0.8399999999999995248 ) ;
#163 = CARTESIAN_POINT ( 'NONE',  ( 2.855775899875450203E-14, 0.8399999999999991918, 8.179267258583379885 ) ) ;
#164 = CC_DESIGN_PERSON_AND_ORGANIZATION_ASSIGNMENT ( #290, #42, ( #152 ) ) ;
#165 = SECURITY_CLASSIFICATION_LEVEL ( 'unclassified' ) ;
#166 = VERTEX_POINT ( 'NONE', #52 ) ;
#167 = DIRECTION ( 'NONE',  ( -4.082522404636433960E-31, -1.000000000000000000, -1.149127898765771580E-16 ) ) ;
#168 = AXIS2_PLACEMENT_3D ( 'NONE', #3, #158, #60 ) ;
#169 = EDGE_LOOP ( 'NONE', ( #212 ) ) ;
#170 = ORIENTED_EDGE ( 'NONE', *, *, #192, .T. ) ;
#171 = LOCAL_TIME ( 9, 32, 46.00000000000000000, #254 ) ;
#172 = DIRECTION ( 'NONE',  ( -3.491481338843133355E-15, 1.224646799147353207E-16, -1.000000000000000000 ) ) ;
#173 = DIRECTION ( 'NONE',  ( -3.491481338843133355E-15, 1.224646799147353207E-16, -1.000000000000000000 ) ) ;
#174 = CLOSED_SHELL ( 'NONE', ( #257, #64, #109, #50 ) ) ;
#175 = AXIS2_PLACEMENT_3D ( 'NONE', #56, #234, #258 ) ;
#176 = AXIS2_PLACEMENT_3D ( 'NONE', #281, #26, #167 ) ;
#177 = AXIS2_PLACEMENT_3D ( 'NONE', #30, #6, #81 ) ;
#178 = DIRECTION ( 'NONE',  ( 4.275831445896957731E-31, 1.000000000000000000, 1.224646799147353207E-16 ) ) ;
#179 = EDGE_CURVE ( 'NONE', #18, #18, #92, .T. ) ;
#180 = DIRECTION ( 'NONE',  ( -3.491481338843133355E-15, 1.224646799147353207E-16, -1.000000000000000000 ) ) ;
#181 = PERSON_AND_ORGANIZATION ( #86, #136 ) ;
#182 = APPROVAL_ROLE ( '' ) ;
#183 = CONICAL_SURFACE ( 'NONE', #273, 1.499999999999996669, 0.1745329251994259812 ) ;
#184 = PRODUCT_DEFINITION_FORMATION_WITH_SPECIFIED_SOURCE ( 'ANY', '', #20, .NOT_KNOWN. ) ;
#185 = ADVANCED_FACE ( 'NONE', ( #157, #117 ), #153, .T. ) ;
#186 = CYLINDRICAL_SURFACE ( 'NONE', #108, 1.499999999999999112 ) ;
#187 = CARTESIAN_POINT ( 'NONE',  ( 8.728703347107833388E-16, 0.9434999999999991172, 0.2500000000000000000 ) ) ;
#188 = DATE_AND_TIME ( #236, #54 ) ;
#189 = EDGE_LOOP ( 'NONE', ( #147 ) ) ;
#190 = PLANE ( 'NONE',  #110 ) ;
#191 = ORIENTED_EDGE ( 'NONE', *, *, #88, .F. ) ;
#192 = EDGE_CURVE ( 'NONE', #21, #21, #215, .T. ) ;
#193 = EDGE_LOOP ( 'NONE', ( #104 ) ) ;
#194 = CARTESIAN_POINT ( 'NONE',  ( 1.745740669421566678E-13, 8.998558695971067645E-33, 50.00000000000000000 ) ) ;
#195 = DIRECTION ( 'NONE',  ( -3.491481338843133355E-15, 1.224646799147353207E-16, -1.000000000000000000 ) ) ;
#196 = CARTESIAN_POINT ( 'NONE',  ( 1.735266225405037467E-13, -6.086494591762345225E-15, 49.70000000000000284 ) ) ;
#197 = DIRECTION ( 'NONE',  ( 3.491481338843133355E-15, -1.224646799147353207E-16, 1.000000000000000000 ) ) ;
#198 = FACE_OUTER_BOUND ( 'NONE', #150, .T. ) ;
#199 = APPROVAL_PERSON_ORGANIZATION ( #292, #237, #182 ) ;
#200 = CC_DESIGN_PERSON_AND_ORGANIZATION_ASSIGNMENT ( #138, #229, ( #20 ) ) ;
#201 = SHAPE_DEFINITION_REPRESENTATION ( #301, #161 ) ;
#202 = APPLICATION_PROTOCOL_DEFINITION ( 'international standard', 'config_control_design', 1994, #38 ) ;
#203 =( NAMED_UNIT ( * ) PLANE_ANGLE_UNIT ( ) SI_UNIT ( $, .RADIAN. ) );
#204 = APPROVAL_DATE_TIME ( #100, #99 ) ;
#205 = APPROVAL_ROLE ( '' ) ;
#206 = CALENDAR_DATE ( 2021, 30, 11 ) ;
#207 = CARTESIAN_POINT ( 'NONE',  ( 5.935518276033326704E-14, -2.168404344971008868E-15, 17.00000000000000000 ) ) ;
#208 = EDGE_LOOP ( 'NONE', ( #103 ) ) ;
#209 = ORIENTED_EDGE ( 'NONE', *, *, #192, .F. ) ;
#210 = FACE_BOUND ( 'NONE', #33, .T. ) ;
#211 = ADVANCED_FACE ( 'NONE', ( #80, #246 ), #101, .T. ) ;
#212 = ORIENTED_EDGE ( 'NONE', *, *, #298, .F. ) ;
#213 = AXIS2_PLACEMENT_3D ( 'NONE', #194, #217, #106 ) ;
#214 = AXIS2_PLACEMENT_3D ( 'NONE', #268, #145, #239 ) ;
#215 = CIRCLE ( 'NONE', #58, 1.499999999999996669 ) ;
#216 = CIRCLE ( 'NONE', #263, 0.8703844939755814858 ) ;
#217 = DIRECTION ( 'NONE',  ( -3.491481338843133355E-15, 1.224646799147353207E-16, -1.000000000000000000 ) ) ;
#218 = EDGE_LOOP ( 'NONE', ( #261 ) ) ;
#219 = CC_DESIGN_DATE_AND_TIME_ASSIGNMENT ( #255, #137, ( #222 ) ) ;
#220 = TOROIDAL_SURFACE ( 'NONE', #91, 2.839999999999999858, 2.000000000000000444 ) ;
#221 = AXIS2_PLACEMENT_3D ( 'NONE', #62, #173, #114 ) ;
#222 = SECURITY_CLASSIFICATION ( '', '', #165 ) ;
#223 = DIRECTION ( 'NONE',  ( -3.491481338843133355E-15, 1.224646799147353207E-16, -1.000000000000000000 ) ) ;
#224 = DIRECTION ( 'NONE',  ( -3.491481338843133355E-15, 1.224646799147353207E-16, -1.000000000000000000 ) ) ;
#225 = EDGE_CURVE ( 'NONE', #125, #125, #49, .T. ) ;
#226 = CARTESIAN_POINT ( 'NONE',  ( 7.303488809519617093E-14, -2.561719031312445558E-15, 20.91802332799966280 ) ) ;
#227 = DIRECTION ( 'NONE',  ( 3.491481338843133355E-15, -1.224646799147353207E-16, 1.000000000000000000 ) ) ;
#228 = AXIS2_PLACEMENT_3D ( 'NONE', #154, #34, #116 ) ;
#229 = PERSON_AND_ORGANIZATION_ROLE ( 'design_owner' ) ;
#230 = DIRECTION ( 'NONE',  ( -3.491481338843133355E-15, 1.224646799147353207E-16, -1.000000000000000000 ) ) ;
#231 = CARTESIAN_POINT ( 'NONE',  ( 2.793185071074506684E-14, 0.9434999999999991172, 8.000000000000000000 ) ) ;
#232 = ADVANCED_FACE ( 'NONE', ( #198, #244 ), #288, .T. ) ;
#233 = CC_DESIGN_APPROVAL ( #270, ( #222 ) ) ;
#234 = DIRECTION ( 'NONE',  ( -3.491481338843133355E-15, 1.224646799147353207E-16, -1.000000000000000000 ) ) ;
#235 = APPLICATION_PROTOCOL_DEFINITION ( 'international standard', 'config_control_design', 1994, #249 ) ;
#236 = CALENDAR_DATE ( 2021, 30, 11 ) ;
#237 = APPROVAL ( #90, 'UNSPECIFIED' ) ;
#238 = VERTEX_POINT ( 'NONE', #97 ) ;
#239 = DIRECTION ( 'NONE',  ( -4.275831445896958607E-31, -1.000000000000000000, -1.224646799147353207E-16 ) ) ;
#240 = EDGE_LOOP ( 'NONE', ( #78 ) ) ;
#241 = AXIS2_PLACEMENT_3D ( 'NONE', #25, #172, #2 ) ;
#242 = EDGE_LOOP ( 'NONE', ( #76 ) ) ;
#243 = ORIENTED_EDGE ( 'NONE', *, *, #298, .T. ) ;
#244 = FACE_OUTER_BOUND ( 'NONE', #77, .T. ) ;
#245 = DIRECTION ( 'NONE',  ( 0.0000000000000000000, 1.000000000000000000, 0.0000000000000000000 ) ) ;
#246 = FACE_OUTER_BOUND ( 'NONE', #240, .T. ) ;
#247 = DIRECTION ( 'NONE',  ( -4.275831445896958607E-31, -1.000000000000000000, -1.224646799147353207E-16 ) ) ;
#248 = FACE_OUTER_BOUND ( 'NONE', #218, .T. ) ;
#249 = APPLICATION_CONTEXT ( 'configuration controlled 3d designs of mechanical parts and assemblies' ) ;
#250 = DIRECTION ( 'NONE',  ( -3.491481338843133355E-15, 1.224646799147353207E-16, -1.000000000000000000 ) ) ;
#251 = PERSON_AND_ORGANIZATION ( #86, #136 ) ;
#252 = VERTEX_POINT ( 'NONE', #121 ) ;
#253 = DIRECTION ( 'NONE',  ( 1.000000000000000000, 0.0000000000000000000, 0.0000000000000000000 ) ) ;
#254 = COORDINATED_UNIVERSAL_TIME_OFFSET ( 1, 0, .AHEAD. ) ;
#255 = DATE_AND_TIME ( #17, #83 ) ;
#256 = LOCAL_TIME ( 9, 32, 46.00000000000000000, #16 ) ;
#257 = ADVANCED_FACE ( 'NONE', ( #85 ), #28, .F. ) ;
#258 = DIRECTION ( 'NONE',  ( 4.275831445896958607E-31, 1.000000000000000000, 1.224646799147352961E-16 ) ) ;
#259 = FACE_OUTER_BOUND ( 'NONE', #193, .T. ) ;
#260 = CC_DESIGN_APPROVAL ( #237, ( #152 ) ) ;
#261 = ORIENTED_EDGE ( 'NONE', *, *, #156, .F. ) ;
#262 = CIRCLE ( 'NONE', #79, 0.9435000000000001164 ) ;
#263 = AXIS2_PLACEMENT_3D ( 'NONE', #277, #230, #10 ) ;
#264 = DIRECTION ( 'NONE',  ( -3.491481338843133355E-15, 1.224646799147353207E-16, -1.000000000000000000 ) ) ;
#265 = DIRECTION ( 'NONE',  ( -3.491481338843133355E-15, 1.224646799147353207E-16, -1.000000000000000000 ) ) ;
#266 = ORIENTED_EDGE ( 'NONE', *, *, #156, .T. ) ;
#267 = AXIS2_PLACEMENT_3D ( 'NONE', #155, #180, #84 ) ;
#268 = CARTESIAN_POINT ( 'NONE',  ( 2.793185071074506684E-14, 7.075116774707298677E-33, 8.000000000000000000 ) ) ;
#269 = EDGE_LOOP ( 'NONE', ( #74 ) ) ;
#270 = APPROVAL ( #272, 'UNSPECIFIED' ) ;
#271 = ORIENTED_EDGE ( 'NONE', *, *, #225, .F. ) ;
#272 = APPROVAL_STATUS ( 'not_yet_approved' ) ;
#273 = AXIS2_PLACEMENT_3D ( 'NONE', #226, #227, #8 ) ;
#274 = COORDINATED_UNIVERSAL_TIME_OFFSET ( 1, 0, .AHEAD. ) ;
#275 = VERTEX_POINT ( 'NONE', #144 ) ;
#276 = CALENDAR_DATE ( 2021, 30, 11 ) ;
#277 = CARTESIAN_POINT ( 'NONE',  ( 6.056776150402963091E-14, -2.124431095542013992E-15, 17.34729635533384595 ) ) ;
#278 = PRODUCT_RELATED_PRODUCT_CATEGORY ( 'detail', '', ( #20 ) ) ;
#279 = DATE_AND_TIME ( #68, #256 ) ;
#280 = VERTEX_POINT ( 'NONE', #295 ) ;
#281 = CARTESIAN_POINT ( 'NONE',  ( 8.728703347107829444E-16, -3.061616997868381785E-17, 0.2499999999999998890 ) ) ;
#282 = ORIENTED_EDGE ( 'NONE', *, *, #128, .F. ) ;
#283 = CIRCLE ( 'NONE', #241, 0.8400000000000001910 ) ;
#284 = DIRECTION ( 'NONE',  ( 0.0000000000000000000, 1.000000000000000000, 0.0000000000000000000 ) ) ;
#285 = ADVANCED_FACE ( 'NONE', ( #286, #43 ), #186, .T. ) ;
#286 = FACE_OUTER_BOUND ( 'NONE', #130, .T. ) ;
#287 = CARTESIAN_POINT ( 'NONE',  ( 7.303488809519617093E-14, -2.561719031312445558E-15, 20.91802332799966280 ) ) ;
#288 = CYLINDRICAL_SURFACE ( 'NONE', #303, 0.8399999999999998579 ) ;
#289 = FACE_OUTER_BOUND ( 'NONE', #23, .T. ) ;
#290 = PERSON_AND_ORGANIZATION ( #86, #136 ) ;
#291 = ORIENTED_EDGE ( 'NONE', *, *, #179, .F. ) ;
#292 = PERSON_AND_ORGANIZATION ( #86, #136 ) ;
#293 = PERSON_AND_ORGANIZATION ( #86, #136 ) ;
#294 =( NAMED_UNIT ( * ) SI_UNIT ( $, .STERADIAN. ) SOLID_ANGLE_UNIT ( ) );
#295 = CARTESIAN_POINT ( 'NONE',  ( 6.056776150402963091E-14, 0.8703844939755792653, 17.34729635533384595 ) ) ;
#296 = APPROVAL_PERSON_ORGANIZATION ( #140, #99, #205 ) ;
#297 = EDGE_LOOP ( 'NONE', ( #266 ) ) ;
#298 = EDGE_CURVE ( 'NONE', #280, #280, #216, .T. ) ;
#299 = ORIENTED_EDGE ( 'NONE', *, *, #29, .F. ) ;
#300 = ORIENTED_EDGE ( 'NONE', *, *, #105, .F. ) ;
#301 = PRODUCT_DEFINITION_SHAPE ( 'NONE', 'NONE',  #152 ) ;
#302 = EDGE_LOOP ( 'NONE', ( #271 ) ) ;
#303 = AXIS2_PLACEMENT_3D ( 'NONE', #131, #250, #178 ) ;
ENDSEC;
END-ISO-10303-21;
