ISO-10303-21;
HEADER;
FILE_DESCRIPTION (( 'STEP AP203' ),
    '1' );
FILE_NAME ('954727.step',
    '2021-10-08T08:12:14',
    ( '' ),
    ( '' ),
    'SwSTEP 2.0',
    'SolidWorks 2019',
    '' );
FILE_SCHEMA (( 'CONFIG_CONTROL_DESIGN' ));
ENDSEC;

DATA;
#1 = EDGE_LOOP ( 'NONE', ( #190 ) ) ;
#2 = FACE_OUTER_BOUND ( 'NONE', #1, .T. ) ;
#3 = ADVANCED_FACE ( 'NONE', ( #2, #120 ), #105, .T. ) ;
#4 = APPLICATION_CONTEXT ( 'configuration controlled 3d designs of mechanical parts and assemblies' ) ;
#5 = CALENDAR_DATE ( 2021, 8, 10 ) ;
#6 = DIRECTION ( 'NONE',  ( -3.408725565287150070E-31, -1.000000000000000000, -9.594709491022182745E-17 ) ) ;
#7 = PERSON_AND_ORGANIZATION ( #142, #52 ) ;
#8 = FACE_OUTER_BOUND ( 'NONE', #118, .T. ) ;
#9 = DATE_AND_TIME ( #96, #98 ) ;
#10 = VERTEX_POINT ( 'NONE', #79 ) ;
#11 = PERSON_AND_ORGANIZATION ( #142, #52 ) ;
#12 = AXIS2_PLACEMENT_3D ( 'NONE', #203, #25, #104 ) ;
#13 = CYLINDRICAL_SURFACE ( 'NONE', #36, 0.5649999999999999467 ) ;
#14 = CARTESIAN_POINT ( 'NONE',  ( 3.142333204958820651E-14, -1.102182119232617911E-15, 9.000000000000001776 ) ) ;
#15 = UNCERTAINTY_MEASURE_WITH_UNIT (LENGTH_MEASURE( 1.000000000000000082E-05 ), #65, 'distance_accuracy_value', 'NONE');
#16 = LOCAL_TIME ( 10, 12, 14.00000000000000000, #148 ) ;
#17 = EDGE_CURVE ( 'NONE', #82, #82, #209, .T. ) ;
#18 = EDGE_LOOP ( 'NONE', ( #165 ) ) ;
#19 = AXIS2_PLACEMENT_3D ( 'NONE', #195, #97, #164 ) ;
#20 = LOCAL_TIME ( 10, 12, 14.00000000000000000, #199 ) ;
#21 = CLOSED_SHELL ( 'NONE', ( #54, #222, #128, #3, #49 ) ) ;
#22 = PLANE ( 'NONE',  #131 ) ;
#23 = ADVANCED_BREP_SHAPE_REPRESENTATION ( '954727', ( #173, #100, #46 ), #106 ) ;
#24 = CC_DESIGN_PERSON_AND_ORGANIZATION_ASSIGNMENT ( #178, #139, ( #188 ) ) ;
#25 = DIRECTION ( 'NONE',  ( -3.491481338843133355E-15, 1.224646799147353207E-16, -1.000000000000000000 ) ) ;
#26 = DIRECTION ( 'NONE',  ( -4.275831445896958607E-31, -1.000000000000000000, -1.224646799147353207E-16 ) ) ;
#27 = DATE_TIME_ROLE ( 'classification_date' ) ;
#28 = PERSON_AND_ORGANIZATION ( #142, #52 ) ;
#29 = CARTESIAN_POINT ( 'NONE',  ( 1.040461438975253740E-13, 0.7499999999999963363, 29.80000000000000071 ) ) ;
#30 = APPROVAL ( #181, 'UNSPECIFIED' ) ;
#31 = DATE_AND_TIME ( #161, #16 ) ;
#32 = FACE_OUTER_BOUND ( 'NONE', #201, .T. ) ;
#33 = DIRECTION ( 'NONE',  ( -3.491481338843133355E-15, 1.224646799147353207E-16, -1.000000000000000000 ) ) ;
#34 = PRODUCT_DEFINITION ( 'UNKNOWN', '', #72, #116 ) ;
#35 = DIRECTION ( 'NONE',  ( -3.491481338843133355E-15, 1.224646799147353207E-16, -1.000000000000000000 ) ) ;
#36 = AXIS2_PLACEMENT_3D ( 'NONE', #193, #138, #198 ) ;
#37 = COORDINATED_UNIVERSAL_TIME_OFFSET ( 1, 0, .AHEAD. ) ;
#38 = ORIENTED_EDGE ( 'NONE', *, *, #140, .T. ) ;
#39 = ORIENTED_EDGE ( 'NONE', *, *, #17, .F. ) ;
#40 = PRODUCT ( '954727', '954727', '', ( #213 ) ) ;
#41 = ORIENTED_EDGE ( 'NONE', *, *, #197, .T. ) ;
#42 = CARTESIAN_POINT ( 'NONE',  ( 1.047444401652940007E-13, -3.673940397442059178E-15, 30.00000000000000000 ) ) ;
#43 = DIRECTION ( 'NONE',  ( -3.491481338843133355E-15, 1.224646799147353207E-16, -1.000000000000000000 ) ) ;
#44 = DATE_AND_TIME ( #192, #170 ) ;
#45 = FACE_OUTER_BOUND ( 'NONE', #206, .T. ) ;
#46 = AXIS2_PLACEMENT_3D ( 'NONE', #55, #103, #217 ) ;
#47 = APPROVAL_PERSON_ORGANIZATION ( #28, #214, #124 ) ;
#48 = FACE_OUTER_BOUND ( 'NONE', #171, .T. ) ;
#49 = ADVANCED_FACE ( 'NONE', ( #56 ), #22, .F. ) ;
#50 = DIRECTION ( 'NONE',  ( 0.0000000000000000000, 1.000000000000000000, 0.0000000000000000000 ) ) ;
#51 = AXIS2_PLACEMENT_3D ( 'NONE', #113, #43, #50 ) ;
#52 = ORGANIZATION ( 'UNSPECIFIED', 'UNSPECIFIED', '' ) ;
#53 = ORIENTED_EDGE ( 'NONE', *, *, #125, .F. ) ;
#54 = ADVANCED_FACE ( 'NONE', ( #154 ), #81, .F. ) ;
#55 = CARTESIAN_POINT ( 'NONE',  ( 0.0000000000000000000, 0.0000000000000000000, 0.0000000000000000000 ) ) ;
#56 = FACE_OUTER_BOUND ( 'NONE', #86, .T. ) ;
#57 = EDGE_LOOP ( 'NONE', ( #172 ) ) ;
#58 = AXIS2_PLACEMENT_3D ( 'NONE', #215, #35, #182 ) ;
#59 = PERSON_AND_ORGANIZATION_ROLE ( 'creator' ) ;
#60 = DIRECTION ( 'NONE',  ( 0.0000000000000000000, 1.000000000000000000, 0.0000000000000000000 ) ) ;
#61 = PERSON_AND_ORGANIZATION_ROLE ( 'design_supplier' ) ;
#62 = APPROVAL_ROLE ( '' ) ;
#63 = CC_DESIGN_DATE_AND_TIME_ASSIGNMENT ( #31, #27, ( #188 ) ) ;
#64 = FACE_BOUND ( 'NONE', #91, .T. ) ;
#65 =( LENGTH_UNIT ( ) NAMED_UNIT ( * ) SI_UNIT ( .MILLI., .METRE. ) );
#66 = CALENDAR_DATE ( 2021, 8, 10 ) ;
#67 = FACE_OUTER_BOUND ( 'NONE', #57, .T. ) ;
#68 = DIRECTION ( 'NONE',  ( 3.491481338843133355E-15, -1.224646799147353207E-16, 1.000000000000000000 ) ) ;
#69 = AXIS2_PLACEMENT_3D ( 'NONE', #191, #99, #183 ) ;
#70 = CC_DESIGN_PERSON_AND_ORGANIZATION_ASSIGNMENT ( #175, #61, ( #72 ) ) ;
#71 = EDGE_LOOP ( 'NONE', ( #130 ) ) ;
#72 = PRODUCT_DEFINITION_FORMATION_WITH_SPECIFIED_SOURCE ( 'ANY', '', #40, .NOT_KNOWN. ) ;
#73 = DIRECTION ( 'NONE',  ( -3.491481338843133355E-15, 1.224646799147353207E-16, -1.000000000000000000 ) ) ;
#74 = DATE_AND_TIME ( #5, #20 ) ;
#75 = CARTESIAN_POINT ( 'NONE',  ( 1.040461438975253740E-13, -3.649447461459112464E-15, 29.80000000000000071 ) ) ;
#76 = APPLICATION_PROTOCOL_DEFINITION ( 'international standard', 'config_control_design', 1994, #4 ) ;
#77 = DIRECTION ( 'NONE',  ( 3.491481338843133355E-15, -1.224646799147353207E-16, 1.000000000000000000 ) ) ;
#78 = APPROVAL_DATE_TIME ( #9, #214 ) ;
#79 = CARTESIAN_POINT ( 'NONE',  ( 1.138931345331186591E-15, 0.5649999999999988365, 0.3262029020921417555 ) ) ;
#80 = AXIS2_PLACEMENT_3D ( 'NONE', #123, #77, #26 ) ;
#81 = PLANE ( 'NONE',  #19 ) ;
#82 = VERTEX_POINT ( 'NONE', #221 ) ;
#83 = PERSON_AND_ORGANIZATION_ROLE ( 'creator' ) ;
#84 = AXIS2_PLACEMENT_3D ( 'NONE', #112, #200, #212 ) ;
#85 = EDGE_CURVE ( 'NONE', #108, #108, #137, .T. ) ;
#86 = EDGE_LOOP ( 'NONE', ( #39 ) ) ;
#87 = EDGE_CURVE ( 'NONE', #177, #177, #169, .T. ) ;
#88 = CC_DESIGN_APPROVAL ( #30, ( #34 ) ) ;
#89 = APPLICATION_CONTEXT ( 'configuration controlled 3d designs of mechanical parts and assemblies' ) ;
#90 = ORIENTED_EDGE ( 'NONE', *, *, #85, .F. ) ;
#91 = EDGE_LOOP ( 'NONE', ( #53 ) ) ;
#92 = FACE_OUTER_BOUND ( 'NONE', #71, .T. ) ;
#93 = APPROVAL_ROLE ( '' ) ;
#94 = APPROVAL_STATUS ( 'not_yet_approved' ) ;
#95 = ADVANCED_FACE ( 'NONE', ( #8 ), #152, .T. ) ;
#96 = CALENDAR_DATE ( 2021, 8, 10 ) ;
#97 = DIRECTION ( 'NONE',  ( 3.491481338843133355E-15, -1.224646799147353207E-16, 1.000000000000000000 ) ) ;
#98 = LOCAL_TIME ( 10, 12, 14.00000000000000000, #194 ) ;
#99 = DIRECTION ( 'NONE',  ( 3.491481338843133355E-15, -1.224646799147353207E-16, 1.000000000000000000 ) ) ;
#100 = MANIFOLD_SOLID_BREP ( 'Corps-Déplacer/Copier1[2]', #187 ) ;
#101 = CC_DESIGN_DATE_AND_TIME_ASSIGNMENT ( #44, #159, ( #34 ) ) ;
#102 = APPLICATION_PROTOCOL_DEFINITION ( 'international standard', 'config_control_design', 1994, #89 ) ;
#103 = DIRECTION ( 'NONE',  ( 0.0000000000000000000, 0.0000000000000000000, 1.000000000000000000 ) ) ;
#104 = DIRECTION ( 'NONE',  ( 0.0000000000000000000, 1.000000000000000000, 0.0000000000000000000 ) ) ;
#105 = CONICAL_SURFACE ( 'NONE', #114, 0.5500000000000000444, 0.7853981633974512766 ) ;
#106 =( GEOMETRIC_REPRESENTATION_CONTEXT ( 3 ) GLOBAL_UNCERTAINTY_ASSIGNED_CONTEXT ( ( #15 ) ) GLOBAL_UNIT_ASSIGNED_CONTEXT ( ( #65, #150, #168 ) ) REPRESENTATION_CONTEXT ( 'NONE', 'WORKASPACE' ) );
#107 = CC_DESIGN_PERSON_AND_ORGANIZATION_ASSIGNMENT ( #219, #176, ( #40 ) ) ;
#108 = VERTEX_POINT ( 'NONE', #126 ) ;
#109 = PLANE ( 'NONE',  #80 ) ;
#110 = CC_DESIGN_APPROVAL ( #214, ( #72 ) ) ;
#111 = DIRECTION ( 'NONE',  ( 0.0000000000000000000, 1.000000000000000000, 0.0000000000000000000 ) ) ;
#112 = CARTESIAN_POINT ( 'NONE',  ( 0.0000000000000000000, 0.0000000000000000000, 0.0000000000000000000 ) ) ;
#113 = CARTESIAN_POINT ( 'NONE',  ( 3.142333204958820651E-14, -1.102182119232617911E-15, 9.000000000000001776 ) ) ;
#114 = AXIS2_PLACEMENT_3D ( 'NONE', #42, #133, #208 ) ;
#115 = AXIS2_PLACEMENT_3D ( 'NONE', #141, #146, #111 ) ;
#116 = DESIGN_CONTEXT ( 'detailed design', #4, 'design' ) ;
#117 = CIRCLE ( 'NONE', #180, 0.5650000000000010569 ) ;
#118 = EDGE_LOOP ( 'NONE', ( #41 ) ) ;
#119 = ORIENTED_EDGE ( 'NONE', *, *, #87, .F. ) ;
#120 = FACE_BOUND ( 'NONE', #134, .T. ) ;
#121 = ADVANCED_FACE ( 'NONE', ( #67, #92 ), #13, .T. ) ;
#122 = COORDINATED_UNIVERSAL_TIME_OFFSET ( 1, 0, .AHEAD. ) ;
#123 = CARTESIAN_POINT ( 'NONE',  ( 3.142333204958820651E-14, -2.082055338400569970E-31, 9.000000000000001776 ) ) ;
#124 = APPROVAL_ROLE ( '' ) ;
#125 = EDGE_CURVE ( 'NONE', #156, #156, #117, .T. ) ;
#126 = CARTESIAN_POINT ( 'NONE',  ( 3.142333204958820651E-14, 0.5649999999999999467, 9.000000000000001776 ) ) ;
#127 = CARTESIAN_POINT ( 'NONE',  ( 1.138931345331186394E-15, -3.994833399197187721E-17, 0.3262029020921417000 ) ) ;
#128 = ADVANCED_FACE ( 'NONE', ( #48, #162 ), #220, .T. ) ;
#129 = CC_DESIGN_PERSON_AND_ORGANIZATION_ASSIGNMENT ( #144, #83, ( #72 ) ) ;
#130 = ORIENTED_EDGE ( 'NONE', *, *, #85, .T. ) ;
#131 = AXIS2_PLACEMENT_3D ( 'NONE', #153, #73, #136 ) ;
#132 = CC_DESIGN_PERSON_AND_ORGANIZATION_ASSIGNMENT ( #7, #59, ( #34 ) ) ;
#133 = DIRECTION ( 'NONE',  ( -3.491481338843133355E-15, 1.224646799147353207E-16, -1.000000000000000000 ) ) ;
#134 = EDGE_LOOP ( 'NONE', ( #210 ) ) ;
#135 = ORIENTED_EDGE ( 'NONE', *, *, #87, .T. ) ;
#136 = DIRECTION ( 'NONE',  ( 4.275831445896958607E-31, 1.000000000000000000, 1.224646799147353207E-16 ) ) ;
#137 = CIRCLE ( 'NONE', #51, 0.5650000000000010569 ) ;
#138 = DIRECTION ( 'NONE',  ( -3.491481338843133355E-15, 1.224646799147353207E-16, -1.000000000000000000 ) ) ;
#139 = PERSON_AND_ORGANIZATION_ROLE ( 'classification_officer' ) ;
#140 = EDGE_CURVE ( 'NONE', #179, #179, #204, .T. ) ;
#141 = CARTESIAN_POINT ( 'NONE',  ( 3.254210531801085787E-14, -1.141423403065439420E-15, 9.320429399400241621 ) ) ;
#142 = PERSON ( 'UNSPECIFIED', 'UNSPECIFIED', 'UNSPECIFIED', ('UNSPECIFIED'), ('UNSPECIFIED'), ('UNSPECIFIED') ) ;
#143 = APPROVAL_STATUS ( 'not_yet_approved' ) ;
#144 = PERSON_AND_ORGANIZATION ( #142, #52 ) ;
#145 = PRODUCT_DEFINITION_SHAPE ( 'NONE', 'NONE',  #34 ) ;
#146 = DIRECTION ( 'NONE',  ( -3.491481338843133355E-15, 1.224646799147353207E-16, -1.000000000000000000 ) ) ;
#147 = DIRECTION ( 'NONE',  ( 0.0000000000000000000, 1.000000000000000000, 0.0000000000000000000 ) ) ;
#148 = COORDINATED_UNIVERSAL_TIME_OFFSET ( 1, 0, .AHEAD. ) ;
#149 = CIRCLE ( 'NONE', #58, 0.5649999999999988365 ) ;
#150 =( NAMED_UNIT ( * ) PLANE_ANGLE_UNIT ( ) SI_UNIT ( $, .RADIAN. ) );
#151 = EDGE_LOOP ( 'NONE', ( #38 ) ) ;
#152 = CONICAL_SURFACE ( 'NONE', #163, 0.5649999999999988365, 1.047197551196592746 ) ;
#153 = CARTESIAN_POINT ( 'NONE',  ( 1.047444401652940007E-13, 4.124339402320052999E-33, 30.00000000000000000 ) ) ;
#154 = FACE_OUTER_BOUND ( 'NONE', #18, .T. ) ;
#155 = PERSON_AND_ORGANIZATION ( #142, #52 ) ;
#156 = VERTEX_POINT ( 'NONE', #158 ) ;
#157 = APPROVAL_DATE_TIME ( #184, #207 ) ;
#158 = CARTESIAN_POINT ( 'NONE',  ( 3.142333204958820651E-14, 0.5649999999999999467, 9.000000000000001776 ) ) ;
#159 = DATE_TIME_ROLE ( 'creation_date' ) ;
#160 = CARTESIAN_POINT ( 'NONE',  ( 3.254210531801085787E-14, 0.7499999999999963363, 9.320429399400241621 ) ) ;
#161 = CALENDAR_DATE ( 2021, 8, 10 ) ;
#162 = FACE_OUTER_BOUND ( 'NONE', #151, .T. ) ;
#163 = AXIS2_PLACEMENT_3D ( 'NONE', #127, #68, #6 ) ;
#164 = DIRECTION ( 'NONE',  ( -4.275831445896958607E-31, -1.000000000000000000, -1.224646799147353207E-16 ) ) ;
#165 = ORIENTED_EDGE ( 'NONE', *, *, #125, .T. ) ;
#166 = LOCAL_TIME ( 10, 12, 14.00000000000000000, #37 ) ;
#167 = APPROVAL_PERSON_ORGANIZATION ( #11, #207, #93 ) ;
#168 =( NAMED_UNIT ( * ) SI_UNIT ( $, .STERADIAN. ) SOLID_ANGLE_UNIT ( ) );
#169 = CIRCLE ( 'NONE', #115, 0.7499999999999975575 ) ;
#170 = LOCAL_TIME ( 10, 12, 14.00000000000000000, #122 ) ;
#171 = EDGE_LOOP ( 'NONE', ( #119 ) ) ;
#172 = ORIENTED_EDGE ( 'NONE', *, *, #197, .F. ) ;
#173 = MANIFOLD_SOLID_BREP ( 'Corps-Déplacer/Copier1[1]', #21 ) ;
#174 = AXIS2_PLACEMENT_3D ( 'NONE', #75, #185, #60 ) ;
#175 = PERSON_AND_ORGANIZATION ( #142, #52 ) ;
#176 = PERSON_AND_ORGANIZATION_ROLE ( 'design_owner' ) ;
#177 = VERTEX_POINT ( 'NONE', #160 ) ;
#178 = PERSON_AND_ORGANIZATION ( #142, #52 ) ;
#179 = VERTEX_POINT ( 'NONE', #29 ) ;
#180 = AXIS2_PLACEMENT_3D ( 'NONE', #14, #33, #147 ) ;
#181 = APPROVAL_STATUS ( 'not_yet_approved' ) ;
#182 = DIRECTION ( 'NONE',  ( 3.408725565287150070E-31, 1.000000000000000000, 9.594709491022182745E-17 ) ) ;
#183 = DIRECTION ( 'NONE',  ( 0.0000000000000000000, -1.000000000000000000, 0.0000000000000000000 ) ) ;
#184 = DATE_AND_TIME ( #66, #166 ) ;
#185 = DIRECTION ( 'NONE',  ( -3.491481338843133355E-15, 1.224646799147353207E-16, -1.000000000000000000 ) ) ;
#186 = SECURITY_CLASSIFICATION_LEVEL ( 'unclassified' ) ;
#187 = CLOSED_SHELL ( 'NONE', ( #95, #121, #205 ) ) ;
#188 = SECURITY_CLASSIFICATION ( '', '', #186 ) ;
#189 = APPROVAL_PERSON_ORGANIZATION ( #155, #30, #62 ) ;
#190 = ORIENTED_EDGE ( 'NONE', *, *, #140, .F. ) ;
#191 = CARTESIAN_POINT ( 'NONE',  ( 3.254210531801085787E-14, -1.141423403065439420E-15, 9.320429399400241621 ) ) ;
#192 = CALENDAR_DATE ( 2021, 8, 10 ) ;
#193 = CARTESIAN_POINT ( 'NONE',  ( 0.0000000000000000000, 0.0000000000000000000, 0.0000000000000000000 ) ) ;
#194 = COORDINATED_UNIVERSAL_TIME_OFFSET ( 1, 0, .AHEAD. ) ;
#195 = CARTESIAN_POINT ( 'NONE',  ( 3.142333204958820651E-14, -2.082055338400569970E-31, 9.000000000000001776 ) ) ;
#196 = CC_DESIGN_SECURITY_CLASSIFICATION ( #188, ( #72 ) ) ;
#197 = EDGE_CURVE ( 'NONE', #10, #10, #149, .T. ) ;
#198 = DIRECTION ( 'NONE',  ( 4.275831445896958607E-31, 1.000000000000000000, 1.224646799147353207E-16 ) ) ;
#199 = COORDINATED_UNIVERSAL_TIME_OFFSET ( 1, 0, .AHEAD. ) ;
#200 = DIRECTION ( 'NONE',  ( -3.491481338843133355E-15, 1.224646799147353207E-16, -1.000000000000000000 ) ) ;
#201 = EDGE_LOOP ( 'NONE', ( #90 ) ) ;
#202 = CONICAL_SURFACE ( 'NONE', #69, 0.7499999999999975575, 0.5235987755982925984 ) ;
#203 = CARTESIAN_POINT ( 'NONE',  ( 1.047444401652940007E-13, -3.673940397442059178E-15, 30.00000000000000000 ) ) ;
#204 = CIRCLE ( 'NONE', #174, 0.7500000000000000000 ) ;
#205 = ADVANCED_FACE ( 'NONE', ( #32 ), #109, .T. ) ;
#206 = EDGE_LOOP ( 'NONE', ( #135 ) ) ;
#207 = APPROVAL ( #143, 'UNSPECIFIED' ) ;
#208 = DIRECTION ( 'NONE',  ( 0.0000000000000000000, 1.000000000000000000, 0.0000000000000000000 ) ) ;
#209 = CIRCLE ( 'NONE', #12, 0.5500000000000000444 ) ;
#210 = ORIENTED_EDGE ( 'NONE', *, *, #17, .T. ) ;
#211 = APPROVAL_DATE_TIME ( #74, #30 ) ;
#212 = DIRECTION ( 'NONE',  ( 4.275831445896959482E-31, 1.000000000000000000, 1.224646799147353207E-16 ) ) ;
#213 = MECHANICAL_CONTEXT ( 'NONE', #89, 'mechanical' ) ;
#214 = APPROVAL ( #94, 'UNSPECIFIED' ) ;
#215 = CARTESIAN_POINT ( 'NONE',  ( 1.138931345331186394E-15, -3.994833399197187721E-17, 0.3262029020921417000 ) ) ;
#216 = SHAPE_DEFINITION_REPRESENTATION ( #145, #23 ) ;
#217 = DIRECTION ( 'NONE',  ( 1.000000000000000000, 0.0000000000000000000, 0.0000000000000000000 ) ) ;
#218 = CC_DESIGN_APPROVAL ( #207, ( #188 ) ) ;
#219 = PERSON_AND_ORGANIZATION ( #142, #52 ) ;
#220 = CYLINDRICAL_SURFACE ( 'NONE', #84, 0.7499999999999986677 ) ;
#221 = CARTESIAN_POINT ( 'NONE',  ( 1.047444401652940007E-13, 0.5499999999999963807, 30.00000000000000000 ) ) ;
#222 = ADVANCED_FACE ( 'NONE', ( #64, #45 ), #202, .T. ) ;
#223 = PRODUCT_RELATED_PRODUCT_CATEGORY ( 'detail', '', ( #40 ) ) ;
ENDSEC;
END-ISO-10303-21;
