ISO-10303-21;
HEADER;
FILE_DESCRIPTION (( 'STEP AP203' ),
    '1' );
FILE_NAME ('954726.step',
    '2021-10-08T08:12:12',
    ( '' ),
    ( '' ),
    'SwSTEP 2.0',
    'SolidWorks 2019',
    '' );
FILE_SCHEMA (( 'CONFIG_CONTROL_DESIGN' ));
ENDSEC;

DATA;
#1 = APPROVAL_PERSON_ORGANIZATION ( #26, #222, #78 ) ;
#2 = FACE_OUTER_BOUND ( 'NONE', #94, .T. ) ;
#3 = PRODUCT_DEFINITION ( 'UNKNOWN', '', #99, #38 ) ;
#4 = CLOSED_SHELL ( 'NONE', ( #104, #70, #206 ) ) ;
#5 = CARTESIAN_POINT ( 'NONE',  ( 1.047444401652940007E-13, 4.124339402320052999E-33, 30.00000000000000000 ) ) ;
#6 = CARTESIAN_POINT ( 'NONE',  ( 3.142333204958820020E-14, 0.5599999999999997202, 9.000000000000000000 ) ) ;
#7 = EDGE_LOOP ( 'NONE', ( #76 ) ) ;
#8 = CONICAL_SURFACE ( 'NONE', #93, 0.5599999999999993872, 1.047197551196592746 ) ;
#9 = EDGE_CURVE ( 'NONE', #176, #176, #125, .T. ) ;
#10 = APPROVAL_DATE_TIME ( #204, #27 ) ;
#11 = PERSON_AND_ORGANIZATION ( #152, #203 ) ;
#12 = PERSON_AND_ORGANIZATION_ROLE ( 'creator' ) ;
#13 = APPROVAL_STATUS ( 'not_yet_approved' ) ;
#14 =( NAMED_UNIT ( * ) SI_UNIT ( $, .STERADIAN. ) SOLID_ANGLE_UNIT ( ) );
#15 = DIRECTION ( 'NONE',  ( 0.0000000000000000000, 1.000000000000000000, 0.0000000000000000000 ) ) ;
#16 = CC_DESIGN_PERSON_AND_ORGANIZATION_ASSIGNMENT ( #11, #179, ( #193 ) ) ;
#17 = AXIS2_PLACEMENT_3D ( 'NONE', #32, #171, #15 ) ;
#18 = CARTESIAN_POINT ( 'NONE',  ( 0.0000000000000000000, 0.0000000000000000000, 0.0000000000000000000 ) ) ;
#19 = CC_DESIGN_SECURITY_CLASSIFICATION ( #193, ( #99 ) ) ;
#20 = CARTESIAN_POINT ( 'NONE',  ( 3.142333204958820020E-14, 4.199327391453191586E-33, 9.000000000000000000 ) ) ;
#21 = EDGE_LOOP ( 'NONE', ( #216 ) ) ;
#22 = ORIENTED_EDGE ( 'NONE', *, *, #115, .F. ) ;
#23 = LOCAL_TIME ( 10, 12, 12.00000000000000000, #80 ) ;
#24 = DATE_AND_TIME ( #68, #184 ) ;
#25 = DIRECTION ( 'NONE',  ( -3.491481338843133355E-15, 1.224646799147353207E-16, -1.000000000000000000 ) ) ;
#26 = PERSON_AND_ORGANIZATION ( #152, #203 ) ;
#27 = APPROVAL ( #101, 'UNSPECIFIED' ) ;
#28 = AXIS2_PLACEMENT_3D ( 'NONE', #130, #48, #55 ) ;
#29 = PERSON_AND_ORGANIZATION ( #152, #203 ) ;
#30 = FACE_OUTER_BOUND ( 'NONE', #79, .T. ) ;
#31 = APPROVAL_ROLE ( '' ) ;
#32 = CARTESIAN_POINT ( 'NONE',  ( 1.047444401652940007E-13, -3.673940397442059178E-15, 30.00000000000000000 ) ) ;
#33 = FACE_OUTER_BOUND ( 'NONE', #196, .T. ) ;
#34 = AXIS2_PLACEMENT_3D ( 'NONE', #5, #195, #111 ) ;
#35 = FACE_OUTER_BOUND ( 'NONE', #160, .T. ) ;
#36 = EDGE_CURVE ( 'NONE', #140, #140, #158, .T. ) ;
#37 = APPROVAL_PERSON_ORGANIZATION ( #29, #27, #215 ) ;
#38 = DESIGN_CONTEXT ( 'detailed design', #191, 'design' ) ;
#39 = CC_DESIGN_PERSON_AND_ORGANIZATION_ASSIGNMENT ( #114, #134, ( #138 ) ) ;
#40 = VERTEX_POINT ( 'NONE', #156 ) ;
#41 = LOCAL_TIME ( 10, 12, 12.00000000000000000, #183 ) ;
#42 = ORIENTED_EDGE ( 'NONE', *, *, #36, .F. ) ;
#43 = CC_DESIGN_DATE_AND_TIME_ASSIGNMENT ( #24, #117, ( #193 ) ) ;
#44 = ORIENTED_EDGE ( 'NONE', *, *, #9, .F. ) ;
#45 = APPLICATION_CONTEXT ( 'configuration controlled 3d designs of mechanical parts and assemblies' ) ;
#46 = PERSON_AND_ORGANIZATION_ROLE ( 'design_supplier' ) ;
#47 = CC_DESIGN_APPROVAL ( #27, ( #193 ) ) ;
#48 = DIRECTION ( 'NONE',  ( 3.491481338843133355E-15, -1.224646799147353207E-16, 1.000000000000000000 ) ) ;
#49 = COORDINATED_UNIVERSAL_TIME_OFFSET ( 1, 0, .AHEAD. ) ;
#50 = DIRECTION ( 'NONE',  ( -4.275831445896958607E-31, -1.000000000000000000, -1.224646799147353207E-16 ) ) ;
#51 = DIRECTION ( 'NONE',  ( 0.0000000000000000000, 0.0000000000000000000, 1.000000000000000000 ) ) ;
#52 = PERSON_AND_ORGANIZATION ( #152, #203 ) ;
#53 = FACE_OUTER_BOUND ( 'NONE', #21, .T. ) ;
#54 = DIRECTION ( 'NONE',  ( 0.0000000000000000000, 1.000000000000000000, 0.0000000000000000000 ) ) ;
#55 = DIRECTION ( 'NONE',  ( 0.0000000000000000000, -1.000000000000000000, 0.0000000000000000000 ) ) ;
#56 = DIRECTION ( 'NONE',  ( 3.491481338843133355E-15, -1.224646799147353207E-16, 1.000000000000000000 ) ) ;
#57 = PRODUCT_DEFINITION_SHAPE ( 'NONE', 'NONE',  #3 ) ;
#58 = AXIS2_PLACEMENT_3D ( 'NONE', #18, #207, #71 ) ;
#59 = APPROVAL ( #13, 'UNSPECIFIED' ) ;
#60 = CARTESIAN_POINT ( 'NONE',  ( 1.128852306876929229E-15, 0.5599999999999993872, 0.3233161507461939088 ) ) ;
#61 =( LENGTH_UNIT ( ) NAMED_UNIT ( * ) SI_UNIT ( .MILLI., .METRE. ) );
#62 = CC_DESIGN_APPROVAL ( #59, ( #99 ) ) ;
#63 = EDGE_LOOP ( 'NONE', ( #77 ) ) ;
#64 = EDGE_LOOP ( 'NONE', ( #143 ) ) ;
#65 = SHAPE_DEFINITION_REPRESENTATION ( #57, #142 ) ;
#66 = COORDINATED_UNIVERSAL_TIME_OFFSET ( 1, 0, .AHEAD. ) ;
#67 = COORDINATED_UNIVERSAL_TIME_OFFSET ( 1, 0, .AHEAD. ) ;
#68 = CALENDAR_DATE ( 2021, 8, 10 ) ;
#69 = CONICAL_SURFACE ( 'NONE', #28, 0.7499999999999975575, 0.5235987755982921543 ) ;
#70 = ADVANCED_FACE ( 'NONE', ( #30, #187 ), #172, .T. ) ;
#71 = DIRECTION ( 'NONE',  ( 4.275831445896958607E-31, 1.000000000000000000, 1.224646799147353207E-16 ) ) ;
#72 = CIRCLE ( 'NONE', #108, 0.7499999999999975575 ) ;
#73 = EDGE_CURVE ( 'NONE', #91, #91, #121, .T. ) ;
#74 = CARTESIAN_POINT ( 'NONE',  ( 3.142333204958820020E-14, 0.5599999999999997202, 9.000000000000000000 ) ) ;
#75 =( NAMED_UNIT ( * ) PLANE_ANGLE_UNIT ( ) SI_UNIT ( $, .RADIAN. ) );
#76 = ORIENTED_EDGE ( 'NONE', *, *, #139, .F. ) ;
#77 = ORIENTED_EDGE ( 'NONE', *, *, #73, .T. ) ;
#78 = APPROVAL_ROLE ( '' ) ;
#79 = EDGE_LOOP ( 'NONE', ( #22 ) ) ;
#80 = COORDINATED_UNIVERSAL_TIME_OFFSET ( 1, 0, .AHEAD. ) ;
#81 = CALENDAR_DATE ( 2021, 8, 10 ) ;
#82 = CARTESIAN_POINT ( 'NONE',  ( 1.128852306876929032E-15, -3.959480891239694259E-17, 0.3233161507461938533 ) ) ;
#83 = DATE_AND_TIME ( #81, #23 ) ;
#84 = DIRECTION ( 'NONE',  ( -3.491481338843133355E-15, 1.224646799147353207E-16, -1.000000000000000000 ) ) ;
#85 = CARTESIAN_POINT ( 'NONE',  ( 3.142333204958820020E-14, 4.199327391453191586E-33, 9.000000000000000000 ) ) ;
#86 = LOCAL_TIME ( 10, 12, 12.00000000000000000, #66 ) ;
#87 = PRODUCT_RELATED_PRODUCT_CATEGORY ( 'detail', '', ( #138 ) ) ;
#88 = CIRCLE ( 'NONE', #190, 0.7500000000000000000 ) ;
#89 = DIRECTION ( 'NONE',  ( 3.491481338843133355E-15, -1.224646799147353207E-16, 1.000000000000000000 ) ) ;
#90 = UNCERTAINTY_MEASURE_WITH_UNIT (LENGTH_MEASURE( 1.000000000000000082E-05 ), #61, 'distance_accuracy_value', 'NONE');
#91 = VERTEX_POINT ( 'NONE', #74 ) ;
#92 = EDGE_LOOP ( 'NONE', ( #42 ) ) ;
#93 = AXIS2_PLACEMENT_3D ( 'NONE', #173, #56, #120 ) ;
#94 = EDGE_LOOP ( 'NONE', ( #157 ) ) ;
#95 = MANIFOLD_SOLID_BREP ( 'Corps-Déplacer/Copier1[2]', #4 ) ;
#96 = APPROVAL_DATE_TIME ( #83, #59 ) ;
#97 = CALENDAR_DATE ( 2021, 8, 10 ) ;
#98 = DIRECTION ( 'NONE',  ( -3.491481338843133355E-15, 1.224646799147353207E-16, -1.000000000000000000 ) ) ;
#99 = PRODUCT_DEFINITION_FORMATION_WITH_SPECIFIED_SOURCE ( 'ANY', '', #138, .NOT_KNOWN. ) ;
#100 = CC_DESIGN_PERSON_AND_ORGANIZATION_ASSIGNMENT ( #159, #221, ( #99 ) ) ;
#101 = APPROVAL_STATUS ( 'not_yet_approved' ) ;
#102 = DIRECTION ( 'NONE',  ( 0.0000000000000000000, 1.000000000000000000, 0.0000000000000000000 ) ) ;
#103 = AXIS2_PLACEMENT_3D ( 'NONE', #199, #180, #127 ) ;
#104 = ADVANCED_FACE ( 'NONE', ( #33 ), #8, .T. ) ;
#105 = FACE_OUTER_BOUND ( 'NONE', #212, .T. ) ;
#106 = CYLINDRICAL_SURFACE ( 'NONE', #209, 0.7499999999999986677 ) ;
#107 = CARTESIAN_POINT ( 'NONE',  ( 0.0000000000000000000, 0.0000000000000000000, 0.0000000000000000000 ) ) ;
#108 = AXIS2_PLACEMENT_3D ( 'NONE', #113, #98, #135 ) ;
#109 = ADVANCED_FACE ( 'NONE', ( #189, #35 ), #106, .T. ) ;
#110 = CIRCLE ( 'NONE', #218, 0.5599999999999993872 ) ;
#111 = DIRECTION ( 'NONE',  ( 4.275831445896958607E-31, 1.000000000000000000, 1.224646799147353207E-16 ) ) ;
#112 = ORIENTED_EDGE ( 'NONE', *, *, #36, .T. ) ;
#113 = CARTESIAN_POINT ( 'NONE',  ( 3.257234243337362660E-14, -1.142483978304164267E-15, 9.329089653438085605 ) ) ;
#114 = PERSON_AND_ORGANIZATION ( #152, #203 ) ;
#115 = EDGE_CURVE ( 'NONE', #210, #210, #110, .T. ) ;
#116 = AXIS2_PLACEMENT_3D ( 'NONE', #137, #208, #102 ) ;
#117 = DATE_TIME_ROLE ( 'classification_date' ) ;
#118 = DATE_AND_TIME ( #168, #41 ) ;
#119 = ADVANCED_FACE ( 'NONE', ( #201 ), #169, .F. ) ;
#120 = DIRECTION ( 'NONE',  ( -3.439160614977210509E-31, -1.000000000000000000, -9.680376540049156945E-17 ) ) ;
#121 = CIRCLE ( 'NONE', #116, 0.5600000000000008304 ) ;
#122 = CC_DESIGN_DATE_AND_TIME_ASSIGNMENT ( #118, #223, ( #3 ) ) ;
#123 = VERTEX_POINT ( 'NONE', #192 ) ;
#124 = PLANE ( 'NONE',  #34 ) ;
#125 = CIRCLE ( 'NONE', #103, 0.5600000000000008304 ) ;
#126 = ORIENTED_EDGE ( 'NONE', *, *, #163, .T. ) ;
#127 = DIRECTION ( 'NONE',  ( 0.0000000000000000000, 1.000000000000000000, 0.0000000000000000000 ) ) ;
#128 = EDGE_LOOP ( 'NONE', ( #177 ) ) ;
#129 = APPROVAL_DATE_TIME ( #147, #222 ) ;
#130 = CARTESIAN_POINT ( 'NONE',  ( 3.257234243337362660E-14, -1.142483978304164267E-15, 9.329089653438085605 ) ) ;
#131 = AXIS2_PLACEMENT_3D ( 'NONE', #165, #25, #54 ) ;
#132 = DIRECTION ( 'NONE',  ( -3.491481338843133355E-15, 1.224646799147353207E-16, -1.000000000000000000 ) ) ;
#133 = CONICAL_SURFACE ( 'NONE', #17, 0.5500000000000000444, 0.7853981633974512766 ) ;
#134 = PERSON_AND_ORGANIZATION_ROLE ( 'design_owner' ) ;
#135 = DIRECTION ( 'NONE',  ( 0.0000000000000000000, 1.000000000000000000, 0.0000000000000000000 ) ) ;
#136 = CC_DESIGN_APPROVAL ( #222, ( #3 ) ) ;
#137 = CARTESIAN_POINT ( 'NONE',  ( 3.142333204958820020E-14, -1.102182119232617714E-15, 9.000000000000000000 ) ) ;
#138 = PRODUCT ( '954726', '954726', '', ( #200 ) ) ;
#139 = EDGE_CURVE ( 'NONE', #123, #123, #72, .T. ) ;
#140 = VERTEX_POINT ( 'NONE', #211 ) ;
#141 = APPROVAL_PERSON_ORGANIZATION ( #167, #59, #31 ) ;
#142 = ADVANCED_BREP_SHAPE_REPRESENTATION ( '954726', ( #170, #95, #175 ), #153 ) ;
#143 = ORIENTED_EDGE ( 'NONE', *, *, #9, .T. ) ;
#144 = ORIENTED_EDGE ( 'NONE', *, *, #115, .T. ) ;
#145 = SECURITY_CLASSIFICATION_LEVEL ( 'unclassified' ) ;
#146 = LOCAL_TIME ( 10, 12, 12.00000000000000000, #49 ) ;
#147 = DATE_AND_TIME ( #97, #146 ) ;
#148 = DIRECTION ( 'NONE',  ( 4.275831445896959482E-31, 1.000000000000000000, 1.224646799147353207E-16 ) ) ;
#149 = APPLICATION_PROTOCOL_DEFINITION ( 'international standard', 'config_control_design', 1994, #191 ) ;
#150 = CLOSED_SHELL ( 'NONE', ( #119, #202, #109, #188, #214 ) ) ;
#151 = FACE_BOUND ( 'NONE', #128, .T. ) ;
#152 = PERSON ( 'UNSPECIFIED', 'UNSPECIFIED', 'UNSPECIFIED', ('UNSPECIFIED'), ('UNSPECIFIED'), ('UNSPECIFIED') ) ;
#153 =( GEOMETRIC_REPRESENTATION_CONTEXT ( 3 ) GLOBAL_UNCERTAINTY_ASSIGNED_CONTEXT ( ( #90 ) ) GLOBAL_UNIT_ASSIGNED_CONTEXT ( ( #61, #75, #14 ) ) REPRESENTATION_CONTEXT ( 'NONE', 'WORKASPACE' ) );
#154 = PLANE ( 'NONE',  #155 ) ;
#155 = AXIS2_PLACEMENT_3D ( 'NONE', #20, #89, #213 ) ;
#156 = CARTESIAN_POINT ( 'NONE',  ( 1.040461438975253740E-13, 0.7499999999999963363, 29.80000000000000071 ) ) ;
#157 = ORIENTED_EDGE ( 'NONE', *, *, #139, .T. ) ;
#158 = CIRCLE ( 'NONE', #131, 0.5500000000000000444 ) ;
#159 = PERSON_AND_ORGANIZATION ( #152, #203 ) ;
#160 = EDGE_LOOP ( 'NONE', ( #126 ) ) ;
#161 = CALENDAR_DATE ( 2021, 8, 10 ) ;
#162 = DIRECTION ( 'NONE',  ( 3.491481338843133355E-15, -1.224646799147353207E-16, 1.000000000000000000 ) ) ;
#163 = EDGE_CURVE ( 'NONE', #40, #40, #88, .T. ) ;
#164 = DIRECTION ( 'NONE',  ( -3.491481338843133355E-15, 1.224646799147353207E-16, -1.000000000000000000 ) ) ;
#165 = CARTESIAN_POINT ( 'NONE',  ( 1.047444401652940007E-13, -3.673940397442059178E-15, 30.00000000000000000 ) ) ;
#166 = AXIS2_PLACEMENT_3D ( 'NONE', #85, #162, #50 ) ;
#167 = PERSON_AND_ORGANIZATION ( #152, #203 ) ;
#168 = CALENDAR_DATE ( 2021, 8, 10 ) ;
#169 = PLANE ( 'NONE',  #166 ) ;
#170 = MANIFOLD_SOLID_BREP ( 'Corps-Déplacer/Copier1[1]', #150 ) ;
#171 = DIRECTION ( 'NONE',  ( -3.491481338843133355E-15, 1.224646799147353207E-16, -1.000000000000000000 ) ) ;
#172 = CYLINDRICAL_SURFACE ( 'NONE', #58, 0.5600000000000001643 ) ;
#173 = CARTESIAN_POINT ( 'NONE',  ( 1.128852306876929032E-15, -3.959480891239694259E-17, 0.3233161507461938533 ) ) ;
#174 = FACE_OUTER_BOUND ( 'NONE', #92, .T. ) ;
#175 = AXIS2_PLACEMENT_3D ( 'NONE', #217, #51, #181 ) ;
#176 = VERTEX_POINT ( 'NONE', #6 ) ;
#177 = ORIENTED_EDGE ( 'NONE', *, *, #73, .F. ) ;
#178 = CC_DESIGN_PERSON_AND_ORGANIZATION_ASSIGNMENT ( #52, #46, ( #99 ) ) ;
#179 = PERSON_AND_ORGANIZATION_ROLE ( 'classification_officer' ) ;
#180 = DIRECTION ( 'NONE',  ( -3.491481338843133355E-15, 1.224646799147353207E-16, -1.000000000000000000 ) ) ;
#181 = DIRECTION ( 'NONE',  ( 1.000000000000000000, 0.0000000000000000000, 0.0000000000000000000 ) ) ;
#182 = DIRECTION ( 'NONE',  ( 3.439160614977210509E-31, 1.000000000000000000, 9.680376540049156945E-17 ) ) ;
#183 = COORDINATED_UNIVERSAL_TIME_OFFSET ( 1, 0, .AHEAD. ) ;
#184 = LOCAL_TIME ( 10, 12, 12.00000000000000000, #67 ) ;
#185 = PERSON_AND_ORGANIZATION ( #152, #203 ) ;
#186 = FACE_BOUND ( 'NONE', #194, .T. ) ;
#187 = FACE_OUTER_BOUND ( 'NONE', #64, .T. ) ;
#188 = ADVANCED_FACE ( 'NONE', ( #53, #186 ), #133, .T. ) ;
#189 = FACE_OUTER_BOUND ( 'NONE', #7, .T. ) ;
#190 = AXIS2_PLACEMENT_3D ( 'NONE', #205, #164, #220 ) ;
#191 = APPLICATION_CONTEXT ( 'configuration controlled 3d designs of mechanical parts and assemblies' ) ;
#192 = CARTESIAN_POINT ( 'NONE',  ( 3.257234243337362660E-14, 0.7499999999999963363, 9.329089653438085605 ) ) ;
#193 = SECURITY_CLASSIFICATION ( '', '', #145 ) ;
#194 = EDGE_LOOP ( 'NONE', ( #112 ) ) ;
#195 = DIRECTION ( 'NONE',  ( -3.491481338843133355E-15, 1.224646799147353207E-16, -1.000000000000000000 ) ) ;
#196 = EDGE_LOOP ( 'NONE', ( #144 ) ) ;
#197 = CC_DESIGN_PERSON_AND_ORGANIZATION_ASSIGNMENT ( #185, #12, ( #3 ) ) ;
#198 = APPROVAL_STATUS ( 'not_yet_approved' ) ;
#199 = CARTESIAN_POINT ( 'NONE',  ( 3.142333204958820020E-14, -1.102182119232617714E-15, 9.000000000000000000 ) ) ;
#200 = MECHANICAL_CONTEXT ( 'NONE', #45, 'mechanical' ) ;
#201 = FACE_OUTER_BOUND ( 'NONE', #63, .T. ) ;
#202 = ADVANCED_FACE ( 'NONE', ( #151, #2 ), #69, .T. ) ;
#203 = ORGANIZATION ( 'UNSPECIFIED', 'UNSPECIFIED', '' ) ;
#204 = DATE_AND_TIME ( #161, #86 ) ;
#205 = CARTESIAN_POINT ( 'NONE',  ( 1.040461438975253740E-13, -3.649447461459112464E-15, 29.80000000000000071 ) ) ;
#206 = ADVANCED_FACE ( 'NONE', ( #105 ), #154, .T. ) ;
#207 = DIRECTION ( 'NONE',  ( -3.491481338843133355E-15, 1.224646799147353207E-16, -1.000000000000000000 ) ) ;
#208 = DIRECTION ( 'NONE',  ( -3.491481338843133355E-15, 1.224646799147353207E-16, -1.000000000000000000 ) ) ;
#209 = AXIS2_PLACEMENT_3D ( 'NONE', #107, #84, #148 ) ;
#210 = VERTEX_POINT ( 'NONE', #60 ) ;
#211 = CARTESIAN_POINT ( 'NONE',  ( 1.047444401652940007E-13, 0.5499999999999963807, 30.00000000000000000 ) ) ;
#212 = EDGE_LOOP ( 'NONE', ( #44 ) ) ;
#213 = DIRECTION ( 'NONE',  ( -4.275831445896958607E-31, -1.000000000000000000, -1.224646799147353207E-16 ) ) ;
#214 = ADVANCED_FACE ( 'NONE', ( #174 ), #124, .F. ) ;
#215 = APPROVAL_ROLE ( '' ) ;
#216 = ORIENTED_EDGE ( 'NONE', *, *, #163, .F. ) ;
#217 = CARTESIAN_POINT ( 'NONE',  ( 0.0000000000000000000, 0.0000000000000000000, 0.0000000000000000000 ) ) ;
#218 = AXIS2_PLACEMENT_3D ( 'NONE', #82, #132, #182 ) ;
#219 = APPLICATION_PROTOCOL_DEFINITION ( 'international standard', 'config_control_design', 1994, #45 ) ;
#220 = DIRECTION ( 'NONE',  ( 0.0000000000000000000, 1.000000000000000000, 0.0000000000000000000 ) ) ;
#221 = PERSON_AND_ORGANIZATION_ROLE ( 'creator' ) ;
#222 = APPROVAL ( #198, 'UNSPECIFIED' ) ;
#223 = DATE_TIME_ROLE ( 'creation_date' ) ;
ENDSEC;
END-ISO-10303-21;
