ISO-10303-21;
HEADER;
FILE_DESCRIPTION (( 'STEP AP203' ),
    '1' );
FILE_NAME ('954450.step',
    '2021-11-30T09:36:59',
    ( '' ),
    ( '' ),
    'SwSTEP 2.0',
    'SolidWorks 2019',
    '' );
FILE_SCHEMA (( 'CONFIG_CONTROL_DESIGN' ));
ENDSEC;

DATA;
#1 = COORDINATED_UNIVERSAL_TIME_OFFSET ( 1, 0, .AHEAD. ) ;
#2 = EDGE_CURVE ( 'NONE', #205, #205, #118, .T. ) ;
#3 = CALENDAR_DATE ( 2021, 30, 11 ) ;
#4 = CC_DESIGN_APPROVAL ( #259, ( #223 ) ) ;
#5 = PERSON_AND_ORGANIZATION ( #198, #41 ) ;
#6 = ORIENTED_EDGE ( 'NONE', *, *, #158, .F. ) ;
#7 = ADVANCED_FACE ( 'NONE', ( #127, #122 ), #193, .T. ) ;
#8 = EDGE_LOOP ( 'NONE', ( #170 ) ) ;
#9 = CARTESIAN_POINT ( 'NONE',  ( 3.623617532978461367E-14, -1.270993937079632838E-15, 10.37845310145380751 ) ) ;
#10 = DIRECTION ( 'NONE',  ( -3.491481338843133355E-15, 1.224646799147353454E-16, -1.000000000000000000 ) ) ;
#11 = ORIENTED_EDGE ( 'NONE', *, *, #136, .F. ) ;
#12 = PLANE ( 'NONE',  #85 ) ;
#13 = CALENDAR_DATE ( 2021, 30, 11 ) ;
#14 = FACE_OUTER_BOUND ( 'NONE', #142, .T. ) ;
#15 = DIRECTION ( 'NONE',  ( -3.491481338843133355E-15, 1.224646799147353454E-16, -1.000000000000000000 ) ) ;
#16 = CIRCLE ( 'NONE', #189, 1.500000000000001332 ) ;
#17 = LOCAL_TIME ( 10, 36, 59.00000000000000000, #166 ) ;
#18 = LOCAL_TIME ( 10, 36, 59.00000000000000000, #62 ) ;
#19 = CARTESIAN_POINT ( 'NONE',  ( 8.728703347107827472E-16, -3.061616997868381785E-17, 0.2499999999999998335 ) ) ;
#20 = DIRECTION ( 'NONE',  ( 0.0000000000000000000, -1.000000000000000000, 0.0000000000000000000 ) ) ;
#21 = CARTESIAN_POINT ( 'NONE',  ( 3.491481338843133355E-14, 1.343499999999998584, 10.00000000000000000 ) ) ;
#22 = CIRCLE ( 'NONE', #109, 1.343499999999999917 ) ;
#23 = AXIS2_PLACEMENT_3D ( 'NONE', #110, #266, #135 ) ;
#24 = APPROVAL_DATE_TIME ( #141, #272 ) ;
#25 = ORIENTED_EDGE ( 'NONE', *, *, #285, .T. ) ;
#26 = AXIS2_PLACEMENT_3D ( 'NONE', #258, #194, #199 ) ;
#27 = EDGE_LOOP ( 'NONE', ( #101 ) ) ;
#28 = DIRECTION ( 'NONE',  ( 3.491481338843133355E-15, -1.224646799147353454E-16, 1.000000000000000000 ) ) ;
#29 = CARTESIAN_POINT ( 'NONE',  ( 3.491481338843133355E-14, -1.224646799147353454E-15, 10.00000000000000000 ) ) ;
#30 = DIRECTION ( 'NONE',  ( -3.491481338843133355E-15, 1.224646799147353454E-16, -1.000000000000000000 ) ) ;
#31 = ADVANCED_FACE ( 'NONE', ( #53 ), #151, .F. ) ;
#32 = FACE_OUTER_BOUND ( 'NONE', #70, .T. ) ;
#33 = CARTESIAN_POINT ( 'NONE',  ( 0.0000000000000000000, 0.0000000000000000000, 0.0000000000000000000 ) ) ;
#34 = CARTESIAN_POINT ( 'NONE',  ( 2.119329172677781757E-13, 1.499999999999994005, 60.69999999999999574 ) ) ;
#35 = AXIS2_PLACEMENT_3D ( 'NONE', #9, #195, #146 ) ;
#36 = DIRECTION ( 'NONE',  ( -3.491481338843133355E-15, 1.224646799147353454E-16, -1.000000000000000000 ) ) ;
#37 = VERTEX_POINT ( 'NONE', #267 ) ;
#38 = CARTESIAN_POINT ( 'NONE',  ( 8.728703347107833388E-14, 1.124999999999996669, 25.00000000000000000 ) ) ;
#39 = ORIENTED_EDGE ( 'NONE', *, *, #67, .T. ) ;
#40 = CLOSED_SHELL ( 'NONE', ( #31, #42, #289, #129, #186, #61, #7, #268 ) ) ;
#41 = ORGANIZATION ( 'UNSPECIFIED', 'UNSPECIFIED', '' ) ;
#42 = ADVANCED_FACE ( 'NONE', ( #200, #213 ), #203, .T. ) ;
#43 = DATE_AND_TIME ( #161, #123 ) ;
#44 = ORIENTED_EDGE ( 'NONE', *, *, #140, .T. ) ;
#45 = PERSON_AND_ORGANIZATION ( #198, #41 ) ;
#46 = CONICAL_SURFACE ( 'NONE', #98, 1.499999999999996003, 0.1745329251994266473 ) ;
#47 = DATE_AND_TIME ( #3, #190 ) ;
#48 = ORIENTED_EDGE ( 'NONE', *, *, #285, .F. ) ;
#49 = DIRECTION ( 'NONE',  ( 4.275831445896960358E-31, 1.000000000000000000, 1.224646799147353454E-16 ) ) ;
#50 = CIRCLE ( 'NONE', #55, 1.343499999999998584 ) ;
#51 = CC_DESIGN_APPROVAL ( #272, ( #204 ) ) ;
#52 = DIRECTION ( 'NONE',  ( 3.491481338843133355E-15, -1.224646799147353454E-16, 1.000000000000000000 ) ) ;
#53 = FACE_OUTER_BOUND ( 'NONE', #237, .T. ) ;
#54 = ORIENTED_EDGE ( 'NONE', *, *, #158, .T. ) ;
#55 = AXIS2_PLACEMENT_3D ( 'NONE', #19, #60, #245 ) ;
#56 = VERTEX_POINT ( 'NONE', #34 ) ;
#57 = FACE_OUTER_BOUND ( 'NONE', #287, .T. ) ;
#58 = DIRECTION ( 'NONE',  ( -3.491481338843133355E-15, 1.224646799147353454E-16, -1.000000000000000000 ) ) ;
#59 = AXIS2_PLACEMENT_3D ( 'NONE', #197, #28, #124 ) ;
#60 = DIRECTION ( 'NONE',  ( -3.491481338843133355E-15, 1.224646799147353454E-16, -1.000000000000000000 ) ) ;
#61 = ADVANCED_FACE ( 'NONE', ( #240, #75 ), #73, .T. ) ;
#62 = COORDINATED_UNIVERSAL_TIME_OFFSET ( 1, 0, .AHEAD. ) ;
#63 = ORIENTED_EDGE ( 'NONE', *, *, #86, .F. ) ;
#64 = CIRCLE ( 'NONE', #131, 1.343499999999999917 ) ;
#65 = APPLICATION_CONTEXT ( 'configuration controlled 3d designs of mechanical parts and assemblies' ) ;
#66 = EDGE_LOOP ( 'NONE', ( #164 ) ) ;
#67 = EDGE_CURVE ( 'NONE', #226, #226, #64, .T. ) ;
#68 = APPROVAL_STATUS ( 'not_yet_approved' ) ;
#69 =( NAMED_UNIT ( * ) SI_UNIT ( $, .STERADIAN. ) SOLID_ANGLE_UNIT ( ) );
#70 = EDGE_LOOP ( 'NONE', ( #63 ) ) ;
#71 = AXIS2_PLACEMENT_3D ( 'NONE', #114, #112, #209 ) ;
#72 = COORDINATED_UNIVERSAL_TIME_OFFSET ( 1, 0, .AHEAD. ) ;
#73 = CYLINDRICAL_SURFACE ( 'NONE', #126, 1.499999999999998668 ) ;
#74 = ADVANCED_FACE ( 'NONE', ( #172 ), #12, .F. ) ;
#75 = FACE_OUTER_BOUND ( 'NONE', #77, .T. ) ;
#76 = CIRCLE ( 'NONE', #279, 1.124999999999998224 ) ;
#77 = EDGE_LOOP ( 'NONE', ( #44 ) ) ;
#78 = ORIENTED_EDGE ( 'NONE', *, *, #154, .T. ) ;
#79 = CARTESIAN_POINT ( 'NONE',  ( 8.552847072295026068E-47, 1.199162432702594261, 0.0000000000000000000 ) ) ;
#80 = APPROVAL_PERSON_ORGANIZATION ( #5, #246, #93 ) ;
#81 = CARTESIAN_POINT ( 'NONE',  ( 2.129803616694311221E-13, -7.470345474798856659E-15, 61.00000000000000000 ) ) ;
#82 = ADVANCED_FACE ( 'NONE', ( #242, #105 ), #229, .T. ) ;
#83 = CARTESIAN_POINT ( 'NONE',  ( 8.849961221477469775E-14, -3.104148534859897544E-15, 25.34729635533384595 ) ) ;
#84 = DIRECTION ( 'NONE',  ( 3.491481338843133355E-15, -1.224646799147353454E-16, 1.000000000000000000 ) ) ;
#85 = AXIS2_PLACEMENT_3D ( 'NONE', #217, #52, #149 ) ;
#86 = EDGE_CURVE ( 'NONE', #273, #273, #76, .T. ) ;
#87 = VERTEX_POINT ( 'NONE', #120 ) ;
#88 = PERSON_AND_ORGANIZATION ( #198, #41 ) ;
#89 = UNCERTAINTY_MEASURE_WITH_UNIT (LENGTH_MEASURE( 1.000000000000000082E-05 ), #280, 'distance_accuracy_value', 'NONE');
#90 = APPROVAL_DATE_TIME ( #43, #246 ) ;
#91 = EDGE_LOOP ( 'NONE', ( #144 ) ) ;
#92 = CC_DESIGN_SECURITY_CLASSIFICATION ( #223, ( #204 ) ) ;
#93 = APPROVAL_ROLE ( '' ) ;
#94 = VERTEX_POINT ( 'NONE', #183 ) ;
#95 = EDGE_LOOP ( 'NONE', ( #54 ) ) ;
#96 = DATE_AND_TIME ( #13, #296 ) ;
#97 = AXIS2_PLACEMENT_3D ( 'NONE', #128, #248, #182 ) ;
#98 = AXIS2_PLACEMENT_3D ( 'NONE', #298, #84, #20 ) ;
#99 = ORIENTED_EDGE ( 'NONE', *, *, #136, .T. ) ;
#100 = SHAPE_DEFINITION_REPRESENTATION ( #299, #187 ) ;
#101 = ORIENTED_EDGE ( 'NONE', *, *, #2, .F. ) ;
#102 = DIRECTION ( 'NONE',  ( 0.0000000000000000000, 1.000000000000000000, 0.0000000000000000000 ) ) ;
#103 = CC_DESIGN_PERSON_AND_ORGANIZATION_ASSIGNMENT ( #251, #188, ( #212 ) ) ;
#104 = CIRCLE ( 'NONE', #243, 1.124999999999999778 ) ;
#105 = FACE_OUTER_BOUND ( 'NONE', #293, .T. ) ;
#106 = CC_DESIGN_DATE_AND_TIME_ASSIGNMENT ( #269, #155, ( #223 ) ) ;
#107 = EDGE_LOOP ( 'NONE', ( #235 ) ) ;
#108 = DIRECTION ( 'NONE',  ( -3.491481338843133355E-15, 1.224646799147353454E-16, -1.000000000000000000 ) ) ;
#109 = AXIS2_PLACEMENT_3D ( 'NONE', #270, #179, #247 ) ;
#110 = CARTESIAN_POINT ( 'NONE',  ( 0.0000000000000000000, 0.0000000000000000000, 0.0000000000000000000 ) ) ;
#111 = APPROVAL_PERSON_ORGANIZATION ( #145, #272, #283 ) ;
#112 = DIRECTION ( 'NONE',  ( -3.491481338843133355E-15, 1.224646799147353454E-16, -1.000000000000000000 ) ) ;
#113 = CYLINDRICAL_SURFACE ( 'NONE', #302, 1.124999999999998890 ) ;
#114 = CARTESIAN_POINT ( 'NONE',  ( 8.728703347107833388E-14, -3.035766082959412415E-15, 25.00000000000000000 ) ) ;
#115 = PRODUCT_RELATED_PRODUCT_CATEGORY ( 'detail', '', ( #165 ) ) ;
#116 = DIRECTION ( 'NONE',  ( 0.0000000000000000000, 0.0000000000000000000, 1.000000000000000000 ) ) ;
#117 = APPLICATION_PROTOCOL_DEFINITION ( 'international standard', 'config_control_design', 1994, #249 ) ;
#118 = CIRCLE ( 'NONE', #26, 1.199162432702594261 ) ;
#119 =( NAMED_UNIT ( * ) PLANE_ANGLE_UNIT ( ) SI_UNIT ( $, .RADIAN. ) );
#120 = CARTESIAN_POINT ( 'NONE',  ( 8.849961221477469775E-14, 1.155384493975576854, 25.34729635533384595 ) ) ;
#121 = EDGE_CURVE ( 'NONE', #37, #37, #236, .T. ) ;
#122 = FACE_BOUND ( 'NONE', #265, .T. ) ;
#123 = LOCAL_TIME ( 10, 36, 59.00000000000000000, #1 ) ;
#124 = DIRECTION ( 'NONE',  ( -4.300550675967036355E-31, -1.000000000000000000, -1.210497401360817476E-16 ) ) ;
#125 = DIRECTION ( 'NONE',  ( -3.491481338843133355E-15, 1.224646799147353454E-16, -1.000000000000000000 ) ) ;
#126 = AXIS2_PLACEMENT_3D ( 'NONE', #173, #262, #49 ) ;
#127 = FACE_OUTER_BOUND ( 'NONE', #66, .T. ) ;
#128 = CARTESIAN_POINT ( 'NONE',  ( 3.491481338843133355E-14, 1.007463634003101252E-32, 10.00000000000000000 ) ) ;
#129 = ADVANCED_FACE ( 'NONE', ( #132, #153 ), #208, .F. ) ;
#130 = CARTESIAN_POINT ( 'NONE',  ( 2.119329172677781757E-13, -7.433606070824434221E-15, 60.69999999999999574 ) ) ;
#131 = AXIS2_PLACEMENT_3D ( 'NONE', #29, #125, #175 ) ;
#132 = FACE_OUTER_BOUND ( 'NONE', #281, .T. ) ;
#133 = CYLINDRICAL_SURFACE ( 'NONE', #23, 1.343499999999999250 ) ;
#134 = CC_DESIGN_DATE_AND_TIME_ASSIGNMENT ( #47, #276, ( #212 ) ) ;
#135 = DIRECTION ( 'NONE',  ( 4.275831445896959482E-31, 1.000000000000000000, 1.224646799147353454E-16 ) ) ;
#136 = EDGE_CURVE ( 'NONE', #227, #227, #22, .T. ) ;
#137 = APPLICATION_PROTOCOL_DEFINITION ( 'international standard', 'config_control_design', 1994, #65 ) ;
#138 = CIRCLE ( 'NONE', #231, 1.200000000000001510 ) ;
#139 = DIRECTION ( 'NONE',  ( 1.000000000000000000, 0.0000000000000000000, 0.0000000000000000000 ) ) ;
#140 = EDGE_CURVE ( 'NONE', #56, #56, #16, .T. ) ;
#141 = DATE_AND_TIME ( #191, #17 ) ;
#142 = EDGE_LOOP ( 'NONE', ( #48 ) ) ;
#143 = VERTEX_POINT ( 'NONE', #282 ) ;
#144 = ORIENTED_EDGE ( 'NONE', *, *, #67, .F. ) ;
#145 = PERSON_AND_ORGANIZATION ( #198, #41 ) ;
#146 = DIRECTION ( 'NONE',  ( 0.0000000000000000000, 1.000000000000000000, 0.0000000000000000000 ) ) ;
#147 = DIRECTION ( 'NONE',  ( 3.491481338843133355E-15, -1.224646799147353454E-16, 1.000000000000000000 ) ) ;
#148 = CLOSED_SHELL ( 'NONE', ( #74, #82, #295, #263 ) ) ;
#149 = DIRECTION ( 'NONE',  ( -4.275831445896959482E-31, -1.000000000000000000, -1.224646799147353454E-16 ) ) ;
#150 = ORIENTED_EDGE ( 'NONE', *, *, #2, .T. ) ;
#151 = PLANE ( 'NONE',  #162 ) ;
#152 = AXIS2_PLACEMENT_3D ( 'NONE', #215, #261, #102 ) ;
#153 = FACE_OUTER_BOUND ( 'NONE', #255, .T. ) ;
#154 = EDGE_CURVE ( 'NONE', #143, #143, #50, .T. ) ;
#155 = DATE_TIME_ROLE ( 'classification_date' ) ;
#156 = DIRECTION ( 'NONE',  ( -3.491481338843133355E-15, 1.224646799147353454E-16, -1.000000000000000000 ) ) ;
#157 = CARTESIAN_POINT ( 'NONE',  ( 3.491481338843133355E-14, 1.343499999999998584, 10.00000000000000000 ) ) ;
#158 = EDGE_CURVE ( 'NONE', #256, #256, #104, .T. ) ;
#159 = FACE_OUTER_BOUND ( 'NONE', #95, .T. ) ;
#160 = DIRECTION ( 'NONE',  ( 4.275831445896959482E-31, 1.000000000000000000, 1.224646799147353454E-16 ) ) ;
#161 = CALENDAR_DATE ( 2021, 30, 11 ) ;
#162 = AXIS2_PLACEMENT_3D ( 'NONE', #264, #147, #239 ) ;
#163 = CC_DESIGN_APPROVAL ( #246, ( #212 ) ) ;
#164 = ORIENTED_EDGE ( 'NONE', *, *, #140, .F. ) ;
#165 = PRODUCT ( '954450', '954450', '', ( #275 ) ) ;
#166 = COORDINATED_UNIVERSAL_TIME_OFFSET ( 1, 0, .AHEAD. ) ;
#167 = ORIENTED_EDGE ( 'NONE', *, *, #121, .F. ) ;
#168 = PERSON_AND_ORGANIZATION_ROLE ( 'design_supplier' ) ;
#169 = CALENDAR_DATE ( 2021, 30, 11 ) ;
#170 = ORIENTED_EDGE ( 'NONE', *, *, #154, .F. ) ;
#171 = PERSON_AND_ORGANIZATION ( #198, #41 ) ;
#172 = FACE_OUTER_BOUND ( 'NONE', #211, .T. ) ;
#173 = CARTESIAN_POINT ( 'NONE',  ( 0.0000000000000000000, 0.0000000000000000000, 0.0000000000000000000 ) ) ;
#174 = MANIFOLD_SOLID_BREP ( 'Corps-Déplacer/Copier1[1]', #40 ) ;
#175 = DIRECTION ( 'NONE',  ( 0.0000000000000000000, 1.000000000000000000, 0.0000000000000000000 ) ) ;
#176 = CARTESIAN_POINT ( 'NONE',  ( 2.129803616694311221E-13, 8.998558695971049855E-33, 61.00000000000000000 ) ) ;
#177 =( GEOMETRIC_REPRESENTATION_CONTEXT ( 3 ) GLOBAL_UNCERTAINTY_ASSIGNED_CONTEXT ( ( #89 ) ) GLOBAL_UNIT_ASSIGNED_CONTEXT ( ( #280, #119, #69 ) ) REPRESENTATION_CONTEXT ( 'NONE', 'WORKASPACE' ) );
#178 = FACE_OUTER_BOUND ( 'NONE', #107, .T. ) ;
#179 = DIRECTION ( 'NONE',  ( -3.491481338843133355E-15, 1.224646799147353454E-16, -1.000000000000000000 ) ) ;
#180 = PLANE ( 'NONE',  #291 ) ;
#181 = AXIS2_PLACEMENT_3D ( 'NONE', #83, #297, #221 ) ;
#182 = DIRECTION ( 'NONE',  ( -4.275831445896959482E-31, -1.000000000000000000, -1.224646799147353454E-16 ) ) ;
#183 = CARTESIAN_POINT ( 'NONE',  ( 2.129803616694311221E-13, 1.199999999999993960, 61.00000000000000000 ) ) ;
#184 = PERSON_AND_ORGANIZATION_ROLE ( 'classification_officer' ) ;
#185 = EDGE_LOOP ( 'NONE', ( #11 ) ) ;
#186 = ADVANCED_FACE ( 'NONE', ( #244, #178 ), #46, .T. ) ;
#187 = ADVANCED_BREP_SHAPE_REPRESENTATION ( '954450', ( #174, #274, #214 ), #177 ) ;
#188 = PERSON_AND_ORGANIZATION_ROLE ( 'creator' ) ;
#189 = AXIS2_PLACEMENT_3D ( 'NONE', #130, #156, #225 ) ;
#190 = LOCAL_TIME ( 10, 36, 59.00000000000000000, #257 ) ;
#191 = CALENDAR_DATE ( 2021, 30, 11 ) ;
#192 = APPROVAL_STATUS ( 'not_yet_approved' ) ;
#193 = CONICAL_SURFACE ( 'NONE', #152, 1.200000000000001510, 0.7853981633974453924 ) ;
#194 = DIRECTION ( 'NONE',  ( -3.491481338843133355E-15, 1.224646799147353454E-16, -1.000000000000000000 ) ) ;
#195 = DIRECTION ( 'NONE',  ( -3.491481338843133355E-15, 1.224646799147353454E-16, -1.000000000000000000 ) ) ;
#196 = CC_DESIGN_PERSON_AND_ORGANIZATION_ASSIGNMENT ( #45, #168, ( #204 ) ) ;
#197 = CARTESIAN_POINT ( 'NONE',  ( 8.728703347107827472E-16, -3.061616997868381785E-17, 0.2499999999999998335 ) ) ;
#198 = PERSON ( 'UNSPECIFIED', 'UNSPECIFIED', 'UNSPECIFIED', ('UNSPECIFIED'), ('UNSPECIFIED'), ('UNSPECIFIED') ) ;
#199 = DIRECTION ( 'NONE',  ( 4.275831445896959482E-31, 1.000000000000000000, 1.224646799147353454E-16 ) ) ;
#200 = FACE_OUTER_BOUND ( 'NONE', #91, .T. ) ;
#201 = DIRECTION ( 'NONE',  ( 4.275831445896959482E-31, 1.000000000000000000, 1.224646799147353454E-16 ) ) ;
#202 = APPROVAL_STATUS ( 'not_yet_approved' ) ;
#203 = CONICAL_SURFACE ( 'NONE', #35, 1.124999999999998224, 0.5235987755982927094 ) ;
#204 = PRODUCT_DEFINITION_FORMATION_WITH_SPECIFIED_SOURCE ( 'ANY', '', #165, .NOT_KNOWN. ) ;
#205 = VERTEX_POINT ( 'NONE', #79 ) ;
#206 = DIRECTION ( 'NONE',  ( 0.0000000000000000000, 1.000000000000000000, 0.0000000000000000000 ) ) ;
#207 = FACE_OUTER_BOUND ( 'NONE', #185, .T. ) ;
#208 = TOROIDAL_SURFACE ( 'NONE', #71, 3.124999999999999556, 2.000000000000000444 ) ;
#209 = DIRECTION ( 'NONE',  ( 4.275831445896959482E-31, 1.000000000000000000, 1.224646799147353454E-16 ) ) ;
#210 = PERSON_AND_ORGANIZATION_ROLE ( 'creator' ) ;
#211 = EDGE_LOOP ( 'NONE', ( #150 ) ) ;
#212 = PRODUCT_DEFINITION ( 'UNKNOWN', '', #204, #278 ) ;
#213 = FACE_BOUND ( 'NONE', #288, .T. ) ;
#214 = AXIS2_PLACEMENT_3D ( 'NONE', #232, #116, #139 ) ;
#215 = CARTESIAN_POINT ( 'NONE',  ( 2.129803616694311221E-13, -7.470345474798856659E-15, 61.00000000000000000 ) ) ;
#216 = CARTESIAN_POINT ( 'NONE',  ( 3.623617532978461367E-14, -1.270993937079632838E-15, 10.37845310145380751 ) ) ;
#217 = CARTESIAN_POINT ( 'NONE',  ( -2.563708219244023816E-31, 8.992277947231538397E-33, -7.342752174334927841E-17 ) ) ;
#218 = CC_DESIGN_PERSON_AND_ORGANIZATION_ASSIGNMENT ( #234, #210, ( #204 ) ) ;
#219 = DIRECTION ( 'NONE',  ( 0.0000000000000000000, 1.000000000000000000, 0.0000000000000000000 ) ) ;
#220 = CC_DESIGN_PERSON_AND_ORGANIZATION_ASSIGNMENT ( #88, #184, ( #223 ) ) ;
#221 = DIRECTION ( 'NONE',  ( 0.0000000000000000000, 1.000000000000000000, 0.0000000000000000000 ) ) ;
#222 = CARTESIAN_POINT ( 'NONE',  ( 8.728703347107833388E-14, -3.061616997868383831E-15, 25.00000000000000000 ) ) ;
#223 = SECURITY_CLASSIFICATION ( '', '', #303 ) ;
#224 = APPROVAL_PERSON_ORGANIZATION ( #171, #259, #286 ) ;
#225 = DIRECTION ( 'NONE',  ( 0.0000000000000000000, 1.000000000000000000, 0.0000000000000000000 ) ) ;
#226 = VERTEX_POINT ( 'NONE', #157 ) ;
#227 = VERTEX_POINT ( 'NONE', #21 ) ;
#228 = CIRCLE ( 'NONE', #181, 1.155384493975579741 ) ;
#229 = CONICAL_SURFACE ( 'NONE', #59, 1.343499999999998584, 0.5235987755982927094 ) ;
#230 = PERSON_AND_ORGANIZATION_ROLE ( 'design_owner' ) ;
#231 = AXIS2_PLACEMENT_3D ( 'NONE', #81, #58, #301 ) ;
#232 = CARTESIAN_POINT ( 'NONE',  ( 0.0000000000000000000, 0.0000000000000000000, 0.0000000000000000000 ) ) ;
#233 = EDGE_LOOP ( 'NONE', ( #277 ) ) ;
#234 = PERSON_AND_ORGANIZATION ( #198, #41 ) ;
#235 = ORIENTED_EDGE ( 'NONE', *, *, #121, .T. ) ;
#236 = CIRCLE ( 'NONE', #238, 1.499999999999996003 ) ;
#237 = EDGE_LOOP ( 'NONE', ( #39 ) ) ;
#238 = AXIS2_PLACEMENT_3D ( 'NONE', #292, #30, #219 ) ;
#239 = DIRECTION ( 'NONE',  ( -4.275831445896959482E-31, -1.000000000000000000, -1.224646799147353454E-16 ) ) ;
#240 = FACE_OUTER_BOUND ( 'NONE', #284, .T. ) ;
#241 = EDGE_CURVE ( 'NONE', #87, #87, #228, .T. ) ;
#242 = FACE_BOUND ( 'NONE', #27, .T. ) ;
#243 = AXIS2_PLACEMENT_3D ( 'NONE', #222, #15, #206 ) ;
#244 = FACE_BOUND ( 'NONE', #233, .T. ) ;
#245 = DIRECTION ( 'NONE',  ( 4.300550675967036355E-31, 1.000000000000000000, 1.210497401360817476E-16 ) ) ;
#246 = APPROVAL ( #192, 'UNSPECIFIED' ) ;
#247 = DIRECTION ( 'NONE',  ( 0.0000000000000000000, 1.000000000000000000, 0.0000000000000000000 ) ) ;
#248 = DIRECTION ( 'NONE',  ( 3.491481338843133355E-15, -1.224646799147353454E-16, 1.000000000000000000 ) ) ;
#249 = APPLICATION_CONTEXT ( 'configuration controlled 3d designs of mechanical parts and assemblies' ) ;
#250 = CARTESIAN_POINT ( 'NONE',  ( 3.623617532978461367E-14, 1.124999999999996891, 10.37845310145380751 ) ) ;
#251 = PERSON_AND_ORGANIZATION ( #198, #41 ) ;
#252 = ORIENTED_EDGE ( 'NONE', *, *, #86, .T. ) ;
#253 = ORIENTED_EDGE ( 'NONE', *, *, #241, .T. ) ;
#254 = PERSON_AND_ORGANIZATION ( #198, #41 ) ;
#255 = EDGE_LOOP ( 'NONE', ( #253 ) ) ;
#256 = VERTEX_POINT ( 'NONE', #38 ) ;
#257 = COORDINATED_UNIVERSAL_TIME_OFFSET ( 1, 0, .AHEAD. ) ;
#258 = CARTESIAN_POINT ( 'NONE',  ( -5.127416438488047631E-31, 1.798455589446307679E-32, -1.468550434866985568E-16 ) ) ;
#259 = APPROVAL ( #202, 'UNSPECIFIED' ) ;
#260 = APPROVAL_DATE_TIME ( #96, #259 ) ;
#261 = DIRECTION ( 'NONE',  ( -3.491481338843133355E-15, 1.224646799147353454E-16, -1.000000000000000000 ) ) ;
#262 = DIRECTION ( 'NONE',  ( -3.491481338843133355E-15, 1.224646799147353454E-16, -1.000000000000000000 ) ) ;
#263 = ADVANCED_FACE ( 'NONE', ( #207 ), #271, .T. ) ;
#264 = CARTESIAN_POINT ( 'NONE',  ( 3.491481338843133355E-14, 1.007463634003101252E-32, 10.00000000000000000 ) ) ;
#265 = EDGE_LOOP ( 'NONE', ( #25 ) ) ;
#266 = DIRECTION ( 'NONE',  ( -3.491481338843133355E-15, 1.224646799147353454E-16, -1.000000000000000000 ) ) ;
#267 = CARTESIAN_POINT ( 'NONE',  ( 9.532340403339405712E-14, 1.499999999999992673, 27.30170800940854647 ) ) ;
#268 = ADVANCED_FACE ( 'NONE', ( #14 ), #180, .F. ) ;
#269 = DATE_AND_TIME ( #169, #18 ) ;
#270 = CARTESIAN_POINT ( 'NONE',  ( 3.491481338843133355E-14, -1.224646799147353454E-15, 10.00000000000000000 ) ) ;
#271 = PLANE ( 'NONE',  #97 ) ;
#272 = APPROVAL ( #68, 'UNSPECIFIED' ) ;
#273 = VERTEX_POINT ( 'NONE', #250 ) ;
#274 = MANIFOLD_SOLID_BREP ( 'Corps-Déplacer/Copier1[2]', #148 ) ;
#275 = MECHANICAL_CONTEXT ( 'NONE', #65, 'mechanical' ) ;
#276 = DATE_TIME_ROLE ( 'creation_date' ) ;
#277 = ORIENTED_EDGE ( 'NONE', *, *, #241, .F. ) ;
#278 = DESIGN_CONTEXT ( 'detailed design', #249, 'design' ) ;
#279 = AXIS2_PLACEMENT_3D ( 'NONE', #216, #10, #290 ) ;
#280 =( LENGTH_UNIT ( ) NAMED_UNIT ( * ) SI_UNIT ( .MILLI., .METRE. ) );
#281 = EDGE_LOOP ( 'NONE', ( #6 ) ) ;
#282 = CARTESIAN_POINT ( 'NONE',  ( 8.728703347107833388E-16, 1.343499999999998584, 0.2500000000000000000 ) ) ;
#283 = APPROVAL_ROLE ( '' ) ;
#284 = EDGE_LOOP ( 'NONE', ( #167 ) ) ;
#285 = EDGE_CURVE ( 'NONE', #94, #94, #138, .T. ) ;
#286 = APPROVAL_ROLE ( '' ) ;
#287 = EDGE_LOOP ( 'NONE', ( #99 ) ) ;
#288 = EDGE_LOOP ( 'NONE', ( #252 ) ) ;
#289 = ADVANCED_FACE ( 'NONE', ( #32, #159 ), #113, .T. ) ;
#290 = DIRECTION ( 'NONE',  ( 0.0000000000000000000, 1.000000000000000000, 0.0000000000000000000 ) ) ;
#291 = AXIS2_PLACEMENT_3D ( 'NONE', #176, #108, #201 ) ;
#292 = CARTESIAN_POINT ( 'NONE',  ( 9.532340403339405712E-14, -3.343494932497784210E-15, 27.30170800940854647 ) ) ;
#293 = EDGE_LOOP ( 'NONE', ( #78 ) ) ;
#294 = FACE_OUTER_BOUND ( 'NONE', #8, .T. ) ;
#295 = ADVANCED_FACE ( 'NONE', ( #294, #57 ), #133, .T. ) ;
#296 = LOCAL_TIME ( 10, 36, 59.00000000000000000, #72 ) ;
#297 = DIRECTION ( 'NONE',  ( -3.491481338843133355E-15, 1.224646799147353454E-16, -1.000000000000000000 ) ) ;
#298 = CARTESIAN_POINT ( 'NONE',  ( 9.532340403339405712E-14, -3.343494932497784210E-15, 27.30170800940854647 ) ) ;
#299 = PRODUCT_DEFINITION_SHAPE ( 'NONE', 'NONE',  #212 ) ;
#300 = CC_DESIGN_PERSON_AND_ORGANIZATION_ASSIGNMENT ( #254, #230, ( #165 ) ) ;
#301 = DIRECTION ( 'NONE',  ( 0.0000000000000000000, 1.000000000000000000, 0.0000000000000000000 ) ) ;
#302 = AXIS2_PLACEMENT_3D ( 'NONE', #33, #36, #160 ) ;
#303 = SECURITY_CLASSIFICATION_LEVEL ( 'unclassified' ) ;
ENDSEC;
END-ISO-10303-21;
