ISO-10303-21;
HEADER;
FILE_DESCRIPTION (( 'STEP AP203' ),
    '1' );
FILE_NAME ('954360.step',
    '2021-11-26T14:47:25',
    ( '' ),
    ( '' ),
    'SwSTEP 2.0',
    'SolidWorks 2019',
    '' );
FILE_SCHEMA (( 'CONFIG_CONTROL_DESIGN' ));
ENDSEC;

DATA;
#1 = CC_DESIGN_PERSON_AND_ORGANIZATION_ASSIGNMENT ( #108, #257, ( #103 ) ) ;
#2 = CARTESIAN_POINT ( 'NONE',  ( 1.047444401652940007E-14, 0.2284999999999994813, 3.000000000000000000 ) ) ;
#3 = CYLINDRICAL_SURFACE ( 'NONE', #268, 1.500000000000000000 ) ;
#4 = ORGANIZATION ( 'UNSPECIFIED', 'UNSPECIFIED', '' ) ;
#5 = EDGE_LOOP ( 'NONE', ( #161 ) ) ;
#6 = EDGE_LOOP ( 'NONE', ( #122 ) ) ;
#7 = AXIS2_PLACEMENT_3D ( 'NONE', #260, #220, #241 ) ;
#8 = EDGE_CURVE ( 'NONE', #134, #134, #50, .T. ) ;
#9 = EDGE_LOOP ( 'NONE', ( #231 ) ) ;
#10 = DIRECTION ( 'NONE',  ( -3.491481338843133355E-15, 1.224646799147352961E-16, -1.000000000000000000 ) ) ;
#11 = FACE_OUTER_BOUND ( 'NONE', #191, .T. ) ;
#12 = AXIS2_PLACEMENT_3D ( 'NONE', #127, #230, #101 ) ;
#13 = ADVANCED_FACE ( 'NONE', ( #11 ), #121, .F. ) ;
#14 = FACE_BOUND ( 'NONE', #5, .T. ) ;
#15 = CARTESIAN_POINT ( 'NONE',  ( 1.326762908760390423E-13, -4.653657836759941152E-15, 38.00000000000000000 ) ) ;
#16 = APPLICATION_PROTOCOL_DEFINITION ( 'international standard', 'config_control_design', 1994, #102 ) ;
#17 = FACE_OUTER_BOUND ( 'NONE', #95, .T. ) ;
#18 = APPROVAL_STATUS ( 'not_yet_approved' ) ;
#19 = CYLINDRICAL_SURFACE ( 'NONE', #216, 0.2285000000000000364 ) ;
#20 = APPROVAL_ROLE ( '' ) ;
#21 = DIRECTION ( 'NONE',  ( -3.491481338843133355E-15, 1.224646799147352961E-16, -1.000000000000000000 ) ) ;
#22 = PERSON_AND_ORGANIZATION_ROLE ( 'design_supplier' ) ;
#23 =( LENGTH_UNIT ( ) NAMED_UNIT ( * ) SI_UNIT ( .MILLI., .METRE. ) );
#24 = EDGE_CURVE ( 'NONE', #193, #193, #29, .T. ) ;
#25 = CIRCLE ( 'NONE', #12, 0.2284999999999993703 ) ;
#26 = APPROVAL_ROLE ( '' ) ;
#27 = FACE_OUTER_BOUND ( 'NONE', #182, .T. ) ;
#28 = PLANE ( 'NONE',  #233 ) ;
#29 = CIRCLE ( 'NONE', #189, 0.1707649730810376354 ) ;
#30 = EDGE_LOOP ( 'NONE', ( #247 ) ) ;
#31 = ORIENTED_EDGE ( 'NONE', *, *, #254, .T. ) ;
#32 = CC_DESIGN_DATE_AND_TIME_ASSIGNMENT ( #242, #238, ( #103 ) ) ;
#33 = EDGE_LOOP ( 'NONE', ( #203 ) ) ;
#34 = PLANE ( 'NONE',  #210 ) ;
#35 = EDGE_CURVE ( 'NONE', #223, #223, #250, .T. ) ;
#36 = DIRECTION ( 'NONE',  ( 3.491481338843133355E-15, -1.224646799147352961E-16, 1.000000000000000000 ) ) ;
#37 = CARTESIAN_POINT ( 'NONE',  ( 1.866998543791203065E-14, -6.548549365651903409E-16, 5.347296355333847728 ) ) ;
#38 = CARTESIAN_POINT ( 'NONE',  ( 1.047444401652940007E-14, 1.713475551691165119E-33, 3.000000000000000000 ) ) ;
#39 = EDGE_LOOP ( 'NONE', ( #269 ) ) ;
#40 = PERSON_AND_ORGANIZATION ( #169, #4 ) ;
#41 = AXIS2_PLACEMENT_3D ( 'NONE', #81, #104, #64 ) ;
#42 = LOCAL_TIME ( 15, 47, 25.00000000000000000, #133 ) ;
#43 = SHAPE_DEFINITION_REPRESENTATION ( #51, #281 ) ;
#44 = CARTESIAN_POINT ( 'NONE',  ( 1.047444401652940007E-14, 0.2284999999999994813, 3.000000000000000000 ) ) ;
#45 = PERSON_AND_ORGANIZATION ( #169, #4 ) ;
#46 = CARTESIAN_POINT ( 'NONE',  ( 1.866998543791203065E-14, 0.2588844939755808316, 5.347296355333847728 ) ) ;
#47 = DATE_AND_TIME ( #65, #73 ) ;
#48 = FACE_OUTER_BOUND ( 'NONE', #39, .T. ) ;
#49 = AXIS2_PLACEMENT_3D ( 'NONE', #283, #217, #180 ) ;
#50 = CIRCLE ( 'NONE', #98, 0.2588844939755814978 ) ;
#51 = PRODUCT_DEFINITION_SHAPE ( 'NONE', 'NONE',  #103 ) ;
#52 = CC_DESIGN_APPROVAL ( #245, ( #211 ) ) ;
#53 = ORIENTED_EDGE ( 'NONE', *, *, #62, .F. ) ;
#54 = APPROVAL ( #18, 'UNSPECIFIED' ) ;
#55 = ORIENTED_EDGE ( 'NONE', *, *, #157, .T. ) ;
#56 = AXIS2_PLACEMENT_3D ( 'NONE', #272, #59, #143 ) ;
#57 = DIRECTION ( 'NONE',  ( 0.0000000000000000000, 1.000000000000000000, 0.0000000000000000000 ) ) ;
#58 = DIRECTION ( 'NONE',  ( 4.275831445896957731E-31, 1.000000000000000000, 1.224646799147352961E-16 ) ) ;
#59 = DIRECTION ( 'NONE',  ( -3.491481338843133355E-15, 1.224646799147352961E-16, -1.000000000000000000 ) ) ;
#60 = CLOSED_SHELL ( 'NONE', ( #13, #273, #246, #84, #207, #221, #204 ) ) ;
#61 = PLANE ( 'NONE',  #159 ) ;
#62 = EDGE_CURVE ( 'NONE', #112, #112, #224, .T. ) ;
#63 = SECURITY_CLASSIFICATION_LEVEL ( 'unclassified' ) ;
#64 = DIRECTION ( 'NONE',  ( 0.0000000000000000000, 1.000000000000000000, 0.0000000000000000000 ) ) ;
#65 = CALENDAR_DATE ( 2021, 26, 11 ) ;
#66 = FACE_OUTER_BOUND ( 'NONE', #275, .T. ) ;
#67 = CONICAL_SURFACE ( 'NONE', #248, 0.2284999999999993703, 0.5235987755982925984 ) ;
#68 = APPROVAL_DATE_TIME ( #70, #235 ) ;
#69 = CARTESIAN_POINT ( 'NONE',  ( 1.316288464743861212E-13, 1.499999999999998668, 37.69999999999999574 ) ) ;
#70 = DATE_AND_TIME ( #261, #165 ) ;
#71 = VERTEX_POINT ( 'NONE', #113 ) ;
#72 = CIRCLE ( 'NONE', #56, 0.2284999999999998699 ) ;
#73 = LOCAL_TIME ( 15, 47, 25.00000000000000000, #151 ) ;
#74 = MANIFOLD_SOLID_BREP ( 'Corps-Déplacer/Copier1[2]', #205 ) ;
#75 = ORIENTED_EDGE ( 'NONE', *, *, #97, .F. ) ;
#76 = CC_DESIGN_APPROVAL ( #54, ( #103 ) ) ;
#77 = CARTESIAN_POINT ( 'NONE',  ( -1.203346198353438499E-31, 4.220770289346472894E-33, -3.446520492508646781E-17 ) ) ;
#78 = DIRECTION ( 'NONE',  ( -4.275831445896957731E-31, -1.000000000000000000, -1.224646799147352961E-16 ) ) ;
#79 = EDGE_CURVE ( 'NONE', #71, #71, #198, .T. ) ;
#80 = DIRECTION ( 'NONE',  ( 0.0000000000000000000, 1.000000000000000000, 0.0000000000000000000 ) ) ;
#81 = CARTESIAN_POINT ( 'NONE',  ( 4.324553032175432134E-14, -1.516849014679658738E-15, 12.38601216069603517 ) ) ;
#82 = DATE_AND_TIME ( #282, #136 ) ;
#83 = DIRECTION ( 'NONE',  ( 4.401432932964521256E-31, 1.000000000000000000, 1.224646799147352961E-16 ) ) ;
#84 = ADVANCED_FACE ( 'NONE', ( #14, #172 ), #139, .T. ) ;
#85 = DIRECTION ( 'NONE',  ( 4.275831445896957731E-31, 1.000000000000000000, 1.224646799147353207E-16 ) ) ;
#86 = PRODUCT ( '954360', '954360', '', ( #279 ) ) ;
#87 = DESIGN_CONTEXT ( 'detailed design', #252, 'design' ) ;
#88 = FACE_OUTER_BOUND ( 'NONE', #30, .T. ) ;
#89 = PERSON_AND_ORGANIZATION ( #169, #4 ) ;
#90 = VERTEX_POINT ( 'NONE', #69 ) ;
#91 = CARTESIAN_POINT ( 'NONE',  ( -4.731839565957902296E-32, 0.1707649730810376354, -1.355252715606880543E-17 ) ) ;
#92 = CC_DESIGN_APPROVAL ( #235, ( #160 ) ) ;
#93 = ORIENTED_EDGE ( 'NONE', *, *, #97, .T. ) ;
#94 = AXIS2_PLACEMENT_3D ( 'NONE', #168, #251, #57 ) ;
#95 = EDGE_LOOP ( 'NONE', ( #53 ) ) ;
#96 = FACE_BOUND ( 'NONE', #6, .T. ) ;
#97 = EDGE_CURVE ( 'NONE', #132, #132, #25, .T. ) ;
#98 = AXIS2_PLACEMENT_3D ( 'NONE', #37, #10, #234 ) ;
#99 = CARTESIAN_POINT ( 'NONE',  ( 4.324553032175432134E-14, -1.516849014679658738E-15, 12.38601216069603517 ) ) ;
#100 = LOCAL_TIME ( 15, 47, 25.00000000000000000, #192 ) ;
#101 = DIRECTION ( 'NONE',  ( 4.214288718571643861E-31, 1.000000000000000000, 1.186216818911933774E-16 ) ) ;
#102 = APPLICATION_CONTEXT ( 'configuration controlled 3d designs of mechanical parts and assemblies' ) ;
#103 = PRODUCT_DEFINITION ( 'UNKNOWN', '', #160, #87 ) ;
#104 = DIRECTION ( 'NONE',  ( -3.491481338843133355E-15, 1.224646799147352961E-16, -1.000000000000000000 ) ) ;
#105 = COORDINATED_UNIVERSAL_TIME_OFFSET ( 1, 0, .AHEAD. ) ;
#106 = DIRECTION ( 'NONE',  ( 3.491481338843133355E-15, -1.224646799147352961E-16, 1.000000000000000000 ) ) ;
#107 = CIRCLE ( 'NONE', #94, 0.2285000000000001474 ) ;
#108 = PERSON_AND_ORGANIZATION ( #169, #4 ) ;
#109 = CARTESIAN_POINT ( 'NONE',  ( 3.491481338843133848E-16, 0.2284999999999993703, 0.1000000000000000056 ) ) ;
#110 = VERTEX_POINT ( 'NONE', #262 ) ;
#111 = APPROVAL_STATUS ( 'not_yet_approved' ) ;
#112 = VERTEX_POINT ( 'NONE', #44 ) ;
#113 = CARTESIAN_POINT ( 'NONE',  ( 4.324553032175432134E-14, 1.499999999999995559, 12.38601216069603517 ) ) ;
#114 = CC_DESIGN_DATE_AND_TIME_ASSIGNMENT ( #82, #176, ( #211 ) ) ;
#115 = CARTESIAN_POINT ( 'NONE',  ( 1.326762908760390423E-13, 1.199999999999998845, 38.00000000000000000 ) ) ;
#116 = EDGE_LOOP ( 'NONE', ( #249 ) ) ;
#117 = AXIS2_PLACEMENT_3D ( 'NONE', #138, #214, #236 ) ;
#118 = ORIENTED_EDGE ( 'NONE', *, *, #35, .T. ) ;
#119 = ADVANCED_FACE ( 'NONE', ( #17 ), #34, .T. ) ;
#120 = EDGE_LOOP ( 'NONE', ( #75 ) ) ;
#121 = PLANE ( 'NONE',  #164 ) ;
#122 = ORIENTED_EDGE ( 'NONE', *, *, #24, .F. ) ;
#123 = DIRECTION ( 'NONE',  ( 3.491481338843133355E-15, -1.224646799147352961E-16, 1.000000000000000000 ) ) ;
#124 = ADVANCED_FACE ( 'NONE', ( #96, #183 ), #67, .T. ) ;
#125 = CARTESIAN_POINT ( 'NONE',  ( 1.047444401652940007E-14, 1.713475551691165119E-33, 3.000000000000000000 ) ) ;
#126 = APPROVAL_ROLE ( '' ) ;
#127 = CARTESIAN_POINT ( 'NONE',  ( 3.491481338843132862E-16, -1.224646799147352653E-17, 0.09999999999999997780 ) ) ;
#128 = CALENDAR_DATE ( 2021, 26, 11 ) ;
#129 = AXIS2_PLACEMENT_3D ( 'NONE', #255, #142, #185 ) ;
#130 = DIRECTION ( 'NONE',  ( -4.275831445896957731E-31, -1.000000000000000000, -1.224646799147352961E-16 ) ) ;
#131 = PERSON_AND_ORGANIZATION_ROLE ( 'creator' ) ;
#132 = VERTEX_POINT ( 'NONE', #109 ) ;
#133 = COORDINATED_UNIVERSAL_TIME_OFFSET ( 1, 0, .AHEAD. ) ;
#134 = VERTEX_POINT ( 'NONE', #46 ) ;
#135 = CONICAL_SURFACE ( 'NONE', #7, 1.200000000000003286, 0.7853981633974453924 ) ;
#136 = LOCAL_TIME ( 15, 47, 25.00000000000000000, #147 ) ;
#137 = DIRECTION ( 'NONE',  ( -3.491481338843133355E-15, 1.224646799147352961E-16, -1.000000000000000000 ) ) ;
#138 = CARTESIAN_POINT ( 'NONE',  ( 0.0000000000000000000, 0.0000000000000000000, 0.0000000000000000000 ) ) ;
#139 = CONICAL_SURFACE ( 'NONE', #150, 1.499999999999996891, 0.1745329251994260367 ) ;
#140 = CC_DESIGN_SECURITY_CLASSIFICATION ( #211, ( #160 ) ) ;
#141 = EDGE_LOOP ( 'NONE', ( #31 ) ) ;
#142 = DIRECTION ( 'NONE',  ( -3.491481338843133355E-15, 1.224646799147352961E-16, -1.000000000000000000 ) ) ;
#143 = DIRECTION ( 'NONE',  ( 0.0000000000000000000, 1.000000000000000000, 0.0000000000000000000 ) ) ;
#144 = AXIS2_PLACEMENT_3D ( 'NONE', #195, #152, #83 ) ;
#145 = ORIENTED_EDGE ( 'NONE', *, *, #79, .F. ) ;
#146 = DIRECTION ( 'NONE',  ( -3.491481338843133355E-15, 1.224646799147352961E-16, -1.000000000000000000 ) ) ;
#147 = COORDINATED_UNIVERSAL_TIME_OFFSET ( 1, 0, .AHEAD. ) ;
#148 = APPROVAL_DATE_TIME ( #153, #54 ) ;
#149 = FACE_OUTER_BOUND ( 'NONE', #116, .T. ) ;
#150 = AXIS2_PLACEMENT_3D ( 'NONE', #99, #232, #170 ) ;
#151 = COORDINATED_UNIVERSAL_TIME_OFFSET ( 1, 0, .AHEAD. ) ;
#152 = DIRECTION ( 'NONE',  ( -3.491481338843133355E-15, 1.224646799147352961E-16, -1.000000000000000000 ) ) ;
#153 = DATE_AND_TIME ( #263, #42 ) ;
#154 = UNCERTAINTY_MEASURE_WITH_UNIT (LENGTH_MEASURE( 1.000000000000000082E-05 ), #23, 'distance_accuracy_value', 'NONE');
#155 = CC_DESIGN_PERSON_AND_ORGANIZATION_ASSIGNMENT ( #178, #219, ( #86 ) ) ;
#156 =( NAMED_UNIT ( * ) SI_UNIT ( $, .STERADIAN. ) SOLID_ANGLE_UNIT ( ) );
#157 = EDGE_CURVE ( 'NONE', #110, #110, #107, .T. ) ;
#158 = EDGE_LOOP ( 'NONE', ( #206 ) ) ;
#159 = AXIS2_PLACEMENT_3D ( 'NONE', #237, #222, #130 ) ;
#160 = PRODUCT_DEFINITION_FORMATION_WITH_SPECIFIED_SOURCE ( 'ANY', '', #86, .NOT_KNOWN. ) ;
#161 = ORIENTED_EDGE ( 'NONE', *, *, #8, .F. ) ;
#162 = MANIFOLD_SOLID_BREP ( 'Corps-Déplacer/Copier1[1]', #60 ) ;
#163 = CC_DESIGN_PERSON_AND_ORGANIZATION_ASSIGNMENT ( #40, #277, ( #211 ) ) ;
#164 = AXIS2_PLACEMENT_3D ( 'NONE', #38, #36, #253 ) ;
#165 = LOCAL_TIME ( 15, 47, 25.00000000000000000, #105 ) ;
#166 = CARTESIAN_POINT ( 'NONE',  ( 1.047444401652940007E-14, -3.673940397442059375E-16, 3.000000000000000000 ) ) ;
#167 = ADVANCED_FACE ( 'NONE', ( #186, #256 ), #274, .T. ) ;
#168 = CARTESIAN_POINT ( 'NONE',  ( 1.745740669421566678E-14, -6.123233995736765296E-16, 5.000000000000000000 ) ) ;
#169 = PERSON ( 'UNSPECIFIED', 'UNSPECIFIED', 'UNSPECIFIED', ('UNSPECIFIED'), ('UNSPECIFIED'), ('UNSPECIFIED') ) ;
#170 = DIRECTION ( 'NONE',  ( 0.0000000000000000000, -1.000000000000000000, 0.0000000000000000000 ) ) ;
#171 = CIRCLE ( 'NONE', #49, 1.500000000000003331 ) ;
#172 = FACE_OUTER_BOUND ( 'NONE', #9, .T. ) ;
#173 = PERSON_AND_ORGANIZATION ( #169, #4 ) ;
#174 = DIRECTION ( 'NONE',  ( -3.491481338843133355E-15, 1.224646799147352961E-16, -1.000000000000000000 ) ) ;
#175 = EDGE_CURVE ( 'NONE', #199, #199, #72, .T. ) ;
#176 = DATE_TIME_ROLE ( 'classification_date' ) ;
#177 = CARTESIAN_POINT ( 'NONE',  ( 1.326762908760390423E-13, 8.998558695971099120E-33, 38.00000000000000000 ) ) ;
#178 = PERSON_AND_ORGANIZATION ( #169, #4 ) ;
#179 = FACE_OUTER_BOUND ( 'NONE', #201, .T. ) ;
#180 = DIRECTION ( 'NONE',  ( 0.0000000000000000000, 1.000000000000000000, 0.0000000000000000000 ) ) ;
#181 = AXIS2_PLACEMENT_3D ( 'NONE', #166, #258, #215 ) ;
#182 = EDGE_LOOP ( 'NONE', ( #267 ) ) ;
#183 = FACE_OUTER_BOUND ( 'NONE', #212, .T. ) ;
#184 = ADVANCED_FACE ( 'NONE', ( #187 ), #61, .F. ) ;
#185 = DIRECTION ( 'NONE',  ( 4.275831445896957731E-31, 1.000000000000000000, 1.224646799147352714E-16 ) ) ;
#186 = FACE_OUTER_BOUND ( 'NONE', #120, .T. ) ;
#187 = FACE_OUTER_BOUND ( 'NONE', #158, .T. ) ;
#188 = PERSON_AND_ORGANIZATION ( #169, #4 ) ;
#189 = AXIS2_PLACEMENT_3D ( 'NONE', #77, #146, #58 ) ;
#190 = PRODUCT_RELATED_PRODUCT_CATEGORY ( 'detail', '', ( #86 ) ) ;
#191 = EDGE_LOOP ( 'NONE', ( #227 ) ) ;
#192 = COORDINATED_UNIVERSAL_TIME_OFFSET ( 1, 0, .AHEAD. ) ;
#193 = VERTEX_POINT ( 'NONE', #91 ) ;
#194 = APPROVAL_DATE_TIME ( #47, #245 ) ;
#195 = CARTESIAN_POINT ( 'NONE',  ( 1.745740669421566678E-14, -4.336808689942017736E-16, 5.000000000000000000 ) ) ;
#196 = APPLICATION_PROTOCOL_DEFINITION ( 'international standard', 'config_control_design', 1994, #252 ) ;
#197 =( NAMED_UNIT ( * ) PLANE_ANGLE_UNIT ( ) SI_UNIT ( $, .RADIAN. ) );
#198 = CIRCLE ( 'NONE', #41, 1.499999999999996891 ) ;
#199 = VERTEX_POINT ( 'NONE', #2 ) ;
#200 = FACE_OUTER_BOUND ( 'NONE', #33, .T. ) ;
#201 = EDGE_LOOP ( 'NONE', ( #145 ) ) ;
#202 = AXIS2_PLACEMENT_3D ( 'NONE', #15, #174, #80 ) ;
#203 = ORIENTED_EDGE ( 'NONE', *, *, #254, .F. ) ;
#204 = ADVANCED_FACE ( 'NONE', ( #88 ), #28, .F. ) ;
#205 = CLOSED_SHELL ( 'NONE', ( #184, #124, #167, #119 ) ) ;
#206 = ORIENTED_EDGE ( 'NONE', *, *, #24, .T. ) ;
#207 = ADVANCED_FACE ( 'NONE', ( #179, #280 ), #3, .T. ) ;
#208 = EDGE_LOOP ( 'NONE', ( #228 ) ) ;
#209 = CARTESIAN_POINT ( 'NONE',  ( 3.491481338843132862E-16, -1.224646799147352653E-17, 0.09999999999999997780 ) ) ;
#210 = AXIS2_PLACEMENT_3D ( 'NONE', #125, #106, #78 ) ;
#211 = SECURITY_CLASSIFICATION ( '', '', #63 ) ;
#212 = EDGE_LOOP ( 'NONE', ( #93 ) ) ;
#213 = CC_DESIGN_PERSON_AND_ORGANIZATION_ASSIGNMENT ( #45, #22, ( #160 ) ) ;
#214 = DIRECTION ( 'NONE',  ( 0.0000000000000000000, 0.0000000000000000000, 1.000000000000000000 ) ) ;
#215 = DIRECTION ( 'NONE',  ( 0.0000000000000000000, 1.000000000000000000, 0.0000000000000000000 ) ) ;
#216 = AXIS2_PLACEMENT_3D ( 'NONE', #240, #244, #226 ) ;
#217 = DIRECTION ( 'NONE',  ( -3.491481338843133355E-15, 1.224646799147352961E-16, -1.000000000000000000 ) ) ;
#218 = APPROVAL_PERSON_ORGANIZATION ( #259, #245, #126 ) ;
#219 = PERSON_AND_ORGANIZATION_ROLE ( 'design_owner' ) ;
#220 = DIRECTION ( 'NONE',  ( -3.491481338843133355E-15, 1.224646799147352961E-16, -1.000000000000000000 ) ) ;
#221 = ADVANCED_FACE ( 'NONE', ( #200, #278 ), #135, .T. ) ;
#222 = DIRECTION ( 'NONE',  ( 3.491481338843133355E-15, -1.224646799147352961E-16, 1.000000000000000000 ) ) ;
#223 = VERTEX_POINT ( 'NONE', #115 ) ;
#224 = CIRCLE ( 'NONE', #181, 0.2284999999999998699 ) ;
#225 = APPROVAL_PERSON_ORGANIZATION ( #173, #235, #20 ) ;
#226 = DIRECTION ( 'NONE',  ( 4.275831445896957731E-31, 1.000000000000000000, 1.224646799147352714E-16 ) ) ;
#227 = ORIENTED_EDGE ( 'NONE', *, *, #175, .T. ) ;
#228 = ORIENTED_EDGE ( 'NONE', *, *, #62, .T. ) ;
#229 =( GEOMETRIC_REPRESENTATION_CONTEXT ( 3 ) GLOBAL_UNCERTAINTY_ASSIGNED_CONTEXT ( ( #154 ) ) GLOBAL_UNIT_ASSIGNED_CONTEXT ( ( #23, #197, #156 ) ) REPRESENTATION_CONTEXT ( 'NONE', 'WORKASPACE' ) );
#230 = DIRECTION ( 'NONE',  ( -3.491481338843133355E-15, 1.224646799147352961E-16, -1.000000000000000000 ) ) ;
#231 = ORIENTED_EDGE ( 'NONE', *, *, #79, .T. ) ;
#232 = DIRECTION ( 'NONE',  ( 3.491481338843133355E-15, -1.224646799147352961E-16, 1.000000000000000000 ) ) ;
#233 = AXIS2_PLACEMENT_3D ( 'NONE', #177, #21, #264 ) ;
#234 = DIRECTION ( 'NONE',  ( 0.0000000000000000000, 1.000000000000000000, 0.0000000000000000000 ) ) ;
#235 = APPROVAL ( #111, 'UNSPECIFIED' ) ;
#236 = DIRECTION ( 'NONE',  ( 1.000000000000000000, 0.0000000000000000000, 0.0000000000000000000 ) ) ;
#237 = CARTESIAN_POINT ( 'NONE',  ( -6.016730991767192497E-32, 2.110385144673236447E-33, -1.723260246254323390E-17 ) ) ;
#238 = DATE_TIME_ROLE ( 'creation_date' ) ;
#239 = APPROVAL_STATUS ( 'not_yet_approved' ) ;
#240 = CARTESIAN_POINT ( 'NONE',  ( 0.0000000000000000000, 0.0000000000000000000, 0.0000000000000000000 ) ) ;
#241 = DIRECTION ( 'NONE',  ( 0.0000000000000000000, 1.000000000000000000, 0.0000000000000000000 ) ) ;
#242 = DATE_AND_TIME ( #128, #100 ) ;
#243 = CARTESIAN_POINT ( 'NONE',  ( 0.0000000000000000000, 0.0000000000000000000, 0.0000000000000000000 ) ) ;
#244 = DIRECTION ( 'NONE',  ( -3.491481338843133355E-15, 1.224646799147352961E-16, -1.000000000000000000 ) ) ;
#245 = APPROVAL ( #239, 'UNSPECIFIED' ) ;
#246 = ADVANCED_FACE ( 'NONE', ( #27, #149 ), #266, .F. ) ;
#247 = ORIENTED_EDGE ( 'NONE', *, *, #35, .F. ) ;
#248 = AXIS2_PLACEMENT_3D ( 'NONE', #209, #123, #270 ) ;
#249 = ORIENTED_EDGE ( 'NONE', *, *, #8, .T. ) ;
#250 = CIRCLE ( 'NONE', #202, 1.200000000000003286 ) ;
#251 = DIRECTION ( 'NONE',  ( -3.491481338843133355E-15, 1.224646799147352961E-16, -1.000000000000000000 ) ) ;
#252 = APPLICATION_CONTEXT ( 'configuration controlled 3d designs of mechanical parts and assemblies' ) ;
#253 = DIRECTION ( 'NONE',  ( -4.275831445896957731E-31, -1.000000000000000000, -1.224646799147352961E-16 ) ) ;
#254 = EDGE_CURVE ( 'NONE', #90, #90, #171, .T. ) ;
#255 = CARTESIAN_POINT ( 'NONE',  ( 0.0000000000000000000, 0.0000000000000000000, 0.0000000000000000000 ) ) ;
#256 = FACE_OUTER_BOUND ( 'NONE', #208, .T. ) ;
#257 = PERSON_AND_ORGANIZATION_ROLE ( 'creator' ) ;
#258 = DIRECTION ( 'NONE',  ( -3.491481338843133355E-15, 1.224646799147352961E-16, -1.000000000000000000 ) ) ;
#259 = PERSON_AND_ORGANIZATION ( #169, #4 ) ;
#260 = CARTESIAN_POINT ( 'NONE',  ( 1.326762908760390423E-13, -4.653657836759941152E-15, 38.00000000000000000 ) ) ;
#261 = CALENDAR_DATE ( 2021, 26, 11 ) ;
#262 = CARTESIAN_POINT ( 'NONE',  ( 1.745740669421566678E-14, 0.2284999999999995368, 5.000000000000000000 ) ) ;
#263 = CALENDAR_DATE ( 2021, 26, 11 ) ;
#264 = DIRECTION ( 'NONE',  ( 4.275831445896957731E-31, 1.000000000000000000, 1.224646799147352961E-16 ) ) ;
#265 = CC_DESIGN_PERSON_AND_ORGANIZATION_ASSIGNMENT ( #188, #131, ( #160 ) ) ;
#266 = TOROIDAL_SURFACE ( 'NONE', #144, 2.228499999999999925, 2.000000000000000000 ) ;
#267 = ORIENTED_EDGE ( 'NONE', *, *, #157, .F. ) ;
#268 = AXIS2_PLACEMENT_3D ( 'NONE', #243, #137, #85 ) ;
#269 = ORIENTED_EDGE ( 'NONE', *, *, #175, .F. ) ;
#270 = DIRECTION ( 'NONE',  ( -4.214288718571643861E-31, -1.000000000000000000, -1.186216818911933774E-16 ) ) ;
#271 = APPROVAL_PERSON_ORGANIZATION ( #89, #54, #26 ) ;
#272 = CARTESIAN_POINT ( 'NONE',  ( 1.047444401652940007E-14, -3.673940397442059375E-16, 3.000000000000000000 ) ) ;
#273 = ADVANCED_FACE ( 'NONE', ( #48, #66 ), #19, .T. ) ;
#274 = CYLINDRICAL_SURFACE ( 'NONE', #129, 0.2284999999999996201 ) ;
#275 = EDGE_LOOP ( 'NONE', ( #55 ) ) ;
#276 = EDGE_LOOP ( 'NONE', ( #118 ) ) ;
#277 = PERSON_AND_ORGANIZATION_ROLE ( 'classification_officer' ) ;
#278 = FACE_BOUND ( 'NONE', #276, .T. ) ;
#279 = MECHANICAL_CONTEXT ( 'NONE', #102, 'mechanical' ) ;
#280 = FACE_OUTER_BOUND ( 'NONE', #141, .T. ) ;
#281 = ADVANCED_BREP_SHAPE_REPRESENTATION ( '954360', ( #162, #74, #117 ), #229 ) ;
#282 = CALENDAR_DATE ( 2021, 26, 11 ) ;
#283 = CARTESIAN_POINT ( 'NONE',  ( 1.316288464743861212E-13, -4.616918432785520292E-15, 37.69999999999999574 ) ) ;
ENDSEC;
END-ISO-10303-21;
