ISO-10303-21;
HEADER;
FILE_DESCRIPTION (( 'STEP AP203' ),
    '1' );
FILE_NAME ('954359.step',
    '2021-11-26T14:47:24',
    ( '' ),
    ( '' ),
    'SwSTEP 2.0',
    'SolidWorks 2019',
    '' );
FILE_SCHEMA (( 'CONFIG_CONTROL_DESIGN' ));
ENDSEC;

DATA;
#1 = DATE_AND_TIME ( #178, #254 ) ;
#2 = APPROVAL_STATUS ( 'not_yet_approved' ) ;
#3 = PLANE ( 'NONE',  #229 ) ;
#4 = ORIENTED_EDGE ( 'NONE', *, *, #211, .F. ) ;
#5 = APPROVAL_ROLE ( '' ) ;
#6 = VERTEX_POINT ( 'NONE', #8 ) ;
#7 = EDGE_LOOP ( 'NONE', ( #80 ) ) ;
#8 = CARTESIAN_POINT ( 'NONE',  ( 1.316288464743861212E-13, 1.499999999999998668, 37.69999999999999574 ) ) ;
#9 = DIRECTION ( 'NONE',  ( -3.491481338843133355E-15, 1.224646799147352961E-16, -1.000000000000000000 ) ) ;
#10 = ORIENTED_EDGE ( 'NONE', *, *, #211, .T. ) ;
#11 = EDGE_CURVE ( 'NONE', #6, #6, #186, .T. ) ;
#12 = EDGE_LOOP ( 'NONE', ( #54 ) ) ;
#13 =( LENGTH_UNIT ( ) NAMED_UNIT ( * ) SI_UNIT ( .MILLI., .METRE. ) );
#14 = ORIENTED_EDGE ( 'NONE', *, *, #226, .T. ) ;
#15 = DIRECTION ( 'NONE',  ( 0.0000000000000000000, 1.000000000000000000, 0.0000000000000000000 ) ) ;
#16 = EDGE_LOOP ( 'NONE', ( #99 ) ) ;
#17 = CARTESIAN_POINT ( 'NONE',  ( -6.444314136356885686E-32, 2.260361122939420908E-33, -1.845724926169057824E-17 ) ) ;
#18 = APPLICATION_PROTOCOL_DEFINITION ( 'international standard', 'config_control_design', 1994, #33 ) ;
#19 = CARTESIAN_POINT ( 'NONE',  ( 1.745740669421566678E-14, -4.336808689942017736E-16, 5.000000000000000000 ) ) ;
#20 = AXIS2_PLACEMENT_3D ( 'NONE', #161, #71, #239 ) ;
#21 = EDGE_CURVE ( 'NONE', #181, #181, #283, .T. ) ;
#22 = DATE_AND_TIME ( #209, #61 ) ;
#23 = FACE_BOUND ( 'NONE', #51, .T. ) ;
#24 = DIRECTION ( 'NONE',  ( 3.491481338843133355E-15, -1.224646799147352961E-16, 1.000000000000000000 ) ) ;
#25 = ORIENTED_EDGE ( 'NONE', *, *, #21, .T. ) ;
#26 = FACE_OUTER_BOUND ( 'NONE', #170, .T. ) ;
#27 = DIRECTION ( 'NONE',  ( 0.0000000000000000000, 1.000000000000000000, 0.0000000000000000000 ) ) ;
#28 = APPROVAL ( #195, 'UNSPECIFIED' ) ;
#29 = APPROVAL_PERSON_ORGANIZATION ( #116, #28, #173 ) ;
#30 = CYLINDRICAL_SURFACE ( 'NONE', #213, 0.2484999999999996934 ) ;
#31 = ADVANCED_FACE ( 'NONE', ( #37 ), #38, .F. ) ;
#32 = VERTEX_POINT ( 'NONE', #262 ) ;
#33 = APPLICATION_CONTEXT ( 'configuration controlled 3d designs of mechanical parts and assemblies' ) ;
#34 = PRODUCT_DEFINITION_FORMATION_WITH_SPECIFIED_SOURCE ( 'ANY', '', #78, .NOT_KNOWN. ) ;
#35 = CC_DESIGN_DATE_AND_TIME_ASSIGNMENT ( #218, #115, ( #48 ) ) ;
#36 = AXIS2_PLACEMENT_3D ( 'NONE', #150, #82, #187 ) ;
#37 = FACE_OUTER_BOUND ( 'NONE', #122, .T. ) ;
#38 = PLANE ( 'NONE',  #73 ) ;
#39 = DIRECTION ( 'NONE',  ( 3.491481338843133355E-15, -1.224646799147352961E-16, 1.000000000000000000 ) ) ;
#40 = FACE_OUTER_BOUND ( 'NONE', #221, .T. ) ;
#41 = APPROVAL ( #158, 'UNSPECIFIED' ) ;
#42 = DIRECTION ( 'NONE',  ( 4.400841658457905985E-31, 1.000000000000000000, 1.224646799147352961E-16 ) ) ;
#43 = DIRECTION ( 'NONE',  ( 4.275831445896957731E-31, 1.000000000000000000, 1.224646799147352961E-16 ) ) ;
#44 = ORIENTED_EDGE ( 'NONE', *, *, #21, .F. ) ;
#45 = AXIS2_PLACEMENT_3D ( 'NONE', #265, #119, #50 ) ;
#46 = PERSON_AND_ORGANIZATION ( #123, #154 ) ;
#47 = CARTESIAN_POINT ( 'NONE',  ( 1.326762908760390423E-13, -4.653657836759941152E-15, 38.00000000000000000 ) ) ;
#48 = PRODUCT_DEFINITION ( 'UNKNOWN', '', #34, #105 ) ;
#49 = DIRECTION ( 'NONE',  ( 3.875110552087004997E-31, 1.000000000000000000, 1.090746652399907046E-16 ) ) ;
#50 = DIRECTION ( 'NONE',  ( 0.0000000000000000000, 1.000000000000000000, 0.0000000000000000000 ) ) ;
#51 = EDGE_LOOP ( 'NONE', ( #104 ) ) ;
#52 = CARTESIAN_POINT ( 'NONE',  ( 3.491481338843134341E-16, 0.2484999999999992770, 0.1000000000000000194 ) ) ;
#53 = LOCAL_TIME ( 15, 47, 24.00000000000000000, #141 ) ;
#54 = ORIENTED_EDGE ( 'NONE', *, *, #183, .T. ) ;
#55 = AXIS2_PLACEMENT_3D ( 'NONE', #240, #60, #15 ) ;
#56 = EDGE_LOOP ( 'NONE', ( #44 ) ) ;
#57 = ORIENTED_EDGE ( 'NONE', *, *, #152, .F. ) ;
#58 = AXIS2_PLACEMENT_3D ( 'NONE', #217, #163, #49 ) ;
#59 = ADVANCED_FACE ( 'NONE', ( #86, #89 ), #112, .F. ) ;
#60 = DIRECTION ( 'NONE',  ( -3.491481338843133355E-15, 1.224646799147352961E-16, -1.000000000000000000 ) ) ;
#61 = LOCAL_TIME ( 15, 47, 24.00000000000000000, #69 ) ;
#62 = CYLINDRICAL_SURFACE ( 'NONE', #97, 0.2484999999999994158 ) ;
#63 = ADVANCED_FACE ( 'NONE', ( #23, #134 ), #251, .T. ) ;
#64 = DIRECTION ( 'NONE',  ( -3.491481338843133355E-15, 1.224646799147352961E-16, -1.000000000000000000 ) ) ;
#65 = PERSON_AND_ORGANIZATION ( #123, #154 ) ;
#66 = CARTESIAN_POINT ( 'NONE',  ( 1.326762908760390423E-13, 1.199999999999998845, 38.00000000000000000 ) ) ;
#67 = CIRCLE ( 'NONE', #219, 0.2484999999999997489 ) ;
#68 = ADVANCED_FACE ( 'NONE', ( #214 ), #114, .F. ) ;
#69 = COORDINATED_UNIVERSAL_TIME_OFFSET ( 1, 0, .AHEAD. ) ;
#70 = DIRECTION ( 'NONE',  ( -3.491481338843133355E-15, 1.224646799147352961E-16, -1.000000000000000000 ) ) ;
#71 = DIRECTION ( 'NONE',  ( -3.491481338843133355E-15, 1.224646799147352961E-16, -1.000000000000000000 ) ) ;
#72 = ORIENTED_EDGE ( 'NONE', *, *, #183, .F. ) ;
#73 = AXIS2_PLACEMENT_3D ( 'NONE', #17, #281, #91 ) ;
#74 = CYLINDRICAL_SURFACE ( 'NONE', #124, 1.500000000000000000 ) ;
#75 = CALENDAR_DATE ( 2021, 26, 11 ) ;
#76 = DIRECTION ( 'NONE',  ( 0.0000000000000000000, 0.0000000000000000000, 1.000000000000000000 ) ) ;
#77 = APPROVAL_DATE_TIME ( #223, #41 ) ;
#78 = PRODUCT ( '954359', '954359', '', ( #236 ) ) ;
#79 = CLOSED_SHELL ( 'NONE', ( #68, #172, #59, #83, #249, #237, #101 ) ) ;
#80 = ORIENTED_EDGE ( 'NONE', *, *, #226, .F. ) ;
#81 = CC_DESIGN_DATE_AND_TIME_ASSIGNMENT ( #125, #248, ( #96 ) ) ;
#82 = DIRECTION ( 'NONE',  ( -3.491481338843133355E-15, 1.224646799147352961E-16, -1.000000000000000000 ) ) ;
#83 = ADVANCED_FACE ( 'NONE', ( #189, #40 ), #168, .T. ) ;
#84 = AXIS2_PLACEMENT_3D ( 'NONE', #19, #64, #42 ) ;
#85 = PERSON_AND_ORGANIZATION ( #123, #154 ) ;
#86 = FACE_OUTER_BOUND ( 'NONE', #252, .T. ) ;
#87 = CARTESIAN_POINT ( 'NONE',  ( 1.326762908760390423E-13, 8.998558695971099120E-33, 38.00000000000000000 ) ) ;
#88 = ADVANCED_FACE ( 'NONE', ( #280 ), #3, .T. ) ;
#89 = FACE_OUTER_BOUND ( 'NONE', #147, .T. ) ;
#90 = AXIS2_PLACEMENT_3D ( 'NONE', #190, #232, #111 ) ;
#91 = DIRECTION ( 'NONE',  ( -4.275831445896957731E-31, -1.000000000000000000, -1.224646799147352961E-16 ) ) ;
#92 = ORIENTED_EDGE ( 'NONE', *, *, #139, .T. ) ;
#93 = CC_DESIGN_PERSON_AND_ORGANIZATION_ASSIGNMENT ( #46, #278, ( #78 ) ) ;
#94 = DIRECTION ( 'NONE',  ( 4.275831445896958607E-31, 1.000000000000000000, 1.224646799147352961E-16 ) ) ;
#95 = DIRECTION ( 'NONE',  ( 0.0000000000000000000, 1.000000000000000000, 0.0000000000000000000 ) ) ;
#96 = SECURITY_CLASSIFICATION ( '', '', #243 ) ;
#97 = AXIS2_PLACEMENT_3D ( 'NONE', #157, #235, #43 ) ;
#98 = CARTESIAN_POINT ( 'NONE',  ( 1.745740669421566993E-14, -6.123233995736766282E-16, 5.000000000000000888 ) ) ;
#99 = ORIENTED_EDGE ( 'NONE', *, *, #11, .F. ) ;
#100 = EDGE_LOOP ( 'NONE', ( #25 ) ) ;
#101 = ADVANCED_FACE ( 'NONE', ( #210 ), #107, .F. ) ;
#102 = APPROVAL_PERSON_ORGANIZATION ( #145, #165, #156 ) ;
#103 = CC_DESIGN_APPROVAL ( #28, ( #48 ) ) ;
#104 = ORIENTED_EDGE ( 'NONE', *, *, #139, .F. ) ;
#105 = DESIGN_CONTEXT ( 'detailed design', #33, 'design' ) ;
#106 =( GEOMETRIC_REPRESENTATION_CONTEXT ( 3 ) GLOBAL_UNCERTAINTY_ASSIGNED_CONTEXT ( ( #231 ) ) GLOBAL_UNIT_ASSIGNED_CONTEXT ( ( #13, #184, #228 ) ) REPRESENTATION_CONTEXT ( 'NONE', 'WORKASPACE' ) );
#107 = PLANE ( 'NONE',  #264 ) ;
#108 = ADVANCED_FACE ( 'NONE', ( #131, #260 ), #62, .T. ) ;
#109 = PRODUCT_RELATED_PRODUCT_CATEGORY ( 'detail', '', ( #78 ) ) ;
#110 = APPROVAL_DATE_TIME ( #1, #165 ) ;
#111 = DIRECTION ( 'NONE',  ( -4.275831445896957731E-31, -1.000000000000000000, -1.224646799147352961E-16 ) ) ;
#112 = TOROIDAL_SURFACE ( 'NONE', #84, 2.248499999999999499, 2.000000000000000444 ) ;
#113 = EDGE_LOOP ( 'NONE', ( #247 ) ) ;
#114 = PLANE ( 'NONE',  #90 ) ;
#115 = DATE_TIME_ROLE ( 'creation_date' ) ;
#116 = PERSON_AND_ORGANIZATION ( #123, #154 ) ;
#117 = CARTESIAN_POINT ( 'NONE',  ( 0.0000000000000000000, 0.0000000000000000000, 0.0000000000000000000 ) ) ;
#118 = PERSON_AND_ORGANIZATION_ROLE ( 'design_supplier' ) ;
#119 = DIRECTION ( 'NONE',  ( -3.491481338843133355E-15, 1.224646799147352961E-16, -1.000000000000000000 ) ) ;
#120 = EDGE_LOOP ( 'NONE', ( #72 ) ) ;
#121 = CARTESIAN_POINT ( 'NONE',  ( -4.731839565957904486E-32, 0.1907649730810374589, -1.355252715606880543E-17 ) ) ;
#122 = EDGE_LOOP ( 'NONE', ( #92 ) ) ;
#123 = PERSON ( 'UNSPECIFIED', 'UNSPECIFIED', 'UNSPECIFIED', ('UNSPECIFIED'), ('UNSPECIFIED'), ('UNSPECIFIED') ) ;
#124 = AXIS2_PLACEMENT_3D ( 'NONE', #117, #244, #140 ) ;
#125 = DATE_AND_TIME ( #75, #53 ) ;
#126 = CARTESIAN_POINT ( 'NONE',  ( 1.866998543791203065E-14, 0.2788844939755801278, 5.347296355333847728 ) ) ;
#127 = CIRCLE ( 'NONE', #58, 0.2484999999999992770 ) ;
#128 = CARTESIAN_POINT ( 'NONE',  ( 1.047444401652940007E-14, 1.863451529957348553E-33, 3.000000000000000000 ) ) ;
#129 = CIRCLE ( 'NONE', #148, 0.1907649730810374589 ) ;
#130 = CARTESIAN_POINT ( 'NONE',  ( 4.284950682894400926E-14, -1.502958380424743781E-15, 12.27258652430367825 ) ) ;
#131 = FACE_OUTER_BOUND ( 'NONE', #253, .T. ) ;
#132 = CC_DESIGN_PERSON_AND_ORGANIZATION_ASSIGNMENT ( #166, #197, ( #96 ) ) ;
#133 = DIRECTION ( 'NONE',  ( 4.275831445896957731E-31, 1.000000000000000000, 1.224646799147352961E-16 ) ) ;
#134 = FACE_OUTER_BOUND ( 'NONE', #193, .T. ) ;
#135 = COORDINATED_UNIVERSAL_TIME_OFFSET ( 1, 0, .AHEAD. ) ;
#136 = CC_DESIGN_PERSON_AND_ORGANIZATION_ASSIGNMENT ( #270, #118, ( #34 ) ) ;
#137 = FACE_OUTER_BOUND ( 'NONE', #263, .T. ) ;
#138 = CARTESIAN_POINT ( 'NONE',  ( 0.0000000000000000000, 0.0000000000000000000, 0.0000000000000000000 ) ) ;
#139 = EDGE_CURVE ( 'NONE', #194, #194, #129, .T. ) ;
#140 = DIRECTION ( 'NONE',  ( 4.275831445896957731E-31, 1.000000000000000000, 1.224646799147353207E-16 ) ) ;
#141 = COORDINATED_UNIVERSAL_TIME_OFFSET ( 1, 0, .AHEAD. ) ;
#142 = DIRECTION ( 'NONE',  ( -3.491481338843133355E-15, 1.224646799147352961E-16, -1.000000000000000000 ) ) ;
#143 = EDGE_LOOP ( 'NONE', ( #275 ) ) ;
#144 = CIRCLE ( 'NONE', #20, 1.499999999999996891 ) ;
#145 = PERSON_AND_ORGANIZATION ( #123, #154 ) ;
#146 = PERSON_AND_ORGANIZATION ( #123, #154 ) ;
#147 = EDGE_LOOP ( 'NONE', ( #10 ) ) ;
#148 = AXIS2_PLACEMENT_3D ( 'NONE', #212, #70, #269 ) ;
#149 = APPLICATION_PROTOCOL_DEFINITION ( 'international standard', 'config_control_design', 1994, #257 ) ;
#150 = CARTESIAN_POINT ( 'NONE',  ( 1.326762908760390423E-13, -4.653657836759941152E-15, 38.00000000000000000 ) ) ;
#151 = MANIFOLD_SOLID_BREP ( 'Corps-Déplacer/Copier1[1]', #79 ) ;
#152 = EDGE_CURVE ( 'NONE', #220, #220, #127, .T. ) ;
#153 = CARTESIAN_POINT ( 'NONE',  ( 3.491481338843133355E-16, -1.224646799147352807E-17, 0.09999999999999999167 ) ) ;
#154 = ORGANIZATION ( 'UNSPECIFIED', 'UNSPECIFIED', '' ) ;
#155 = CC_DESIGN_PERSON_AND_ORGANIZATION_ASSIGNMENT ( #146, #182, ( #34 ) ) ;
#156 = APPROVAL_ROLE ( '' ) ;
#157 = CARTESIAN_POINT ( 'NONE',  ( 0.0000000000000000000, 0.0000000000000000000, 0.0000000000000000000 ) ) ;
#158 = APPROVAL_STATUS ( 'not_yet_approved' ) ;
#159 = AXIS2_PLACEMENT_3D ( 'NONE', #216, #242, #200 ) ;
#160 = FACE_OUTER_BOUND ( 'NONE', #143, .T. ) ;
#161 = CARTESIAN_POINT ( 'NONE',  ( 4.284950682894400926E-14, -1.502958380424743781E-15, 12.27258652430367825 ) ) ;
#162 = APPROVAL_DATE_TIME ( #22, #28 ) ;
#163 = DIRECTION ( 'NONE',  ( -3.491481338843133355E-15, 1.224646799147352961E-16, -1.000000000000000000 ) ) ;
#164 = CC_DESIGN_PERSON_AND_ORGANIZATION_ASSIGNMENT ( #85, #207, ( #48 ) ) ;
#165 = APPROVAL ( #2, 'UNSPECIFIED' ) ;
#166 = PERSON_AND_ORGANIZATION ( #123, #154 ) ;
#167 = FACE_OUTER_BOUND ( 'NONE', #7, .T. ) ;
#168 = CONICAL_SURFACE ( 'NONE', #230, 1.499999999999996891, 0.1745329251994260644 ) ;
#169 = DIRECTION ( 'NONE',  ( -3.491481338843133355E-15, 1.224646799147352961E-16, -1.000000000000000000 ) ) ;
#170 = EDGE_LOOP ( 'NONE', ( #199 ) ) ;
#171 = CONICAL_SURFACE ( 'NONE', #201, 1.200000000000003286, 0.7853981633974453924 ) ;
#172 = ADVANCED_FACE ( 'NONE', ( #137, #160 ), #30, .T. ) ;
#173 = APPROVAL_ROLE ( '' ) ;
#174 = LOCAL_TIME ( 15, 47, 24.00000000000000000, #135 ) ;
#175 = DIRECTION ( 'NONE',  ( -3.491481338843133355E-15, 1.224646799147352961E-16, -1.000000000000000000 ) ) ;
#176 = DIRECTION ( 'NONE',  ( 1.000000000000000000, 0.0000000000000000000, 0.0000000000000000000 ) ) ;
#177 = EDGE_LOOP ( 'NONE', ( #4 ) ) ;
#178 = CALENDAR_DATE ( 2021, 26, 11 ) ;
#179 = FACE_BOUND ( 'NONE', #100, .T. ) ;
#180 = COORDINATED_UNIVERSAL_TIME_OFFSET ( 1, 0, .AHEAD. ) ;
#181 = VERTEX_POINT ( 'NONE', #66 ) ;
#182 = PERSON_AND_ORGANIZATION_ROLE ( 'creator' ) ;
#183 = EDGE_CURVE ( 'NONE', #32, #32, #259, .T. ) ;
#184 =( NAMED_UNIT ( * ) PLANE_ANGLE_UNIT ( ) SI_UNIT ( $, .RADIAN. ) );
#185 = VERTEX_POINT ( 'NONE', #126 ) ;
#186 = CIRCLE ( 'NONE', #55, 1.500000000000003331 ) ;
#187 = DIRECTION ( 'NONE',  ( 0.0000000000000000000, 1.000000000000000000, 0.0000000000000000000 ) ) ;
#188 = EDGE_CURVE ( 'NONE', #204, #204, #67, .T. ) ;
#189 = FACE_BOUND ( 'NONE', #177, .T. ) ;
#190 = CARTESIAN_POINT ( 'NONE',  ( 1.047444401652940007E-14, 1.863451529957348553E-33, 3.000000000000000000 ) ) ;
#191 = CC_DESIGN_APPROVAL ( #165, ( #96 ) ) ;
#192 = SHAPE_DEFINITION_REPRESENTATION ( #250, #245 ) ;
#193 = EDGE_LOOP ( 'NONE', ( #225 ) ) ;
#194 = VERTEX_POINT ( 'NONE', #121 ) ;
#195 = APPROVAL_STATUS ( 'not_yet_approved' ) ;
#196 = DIRECTION ( 'NONE',  ( -3.491481338843133355E-15, 1.224646799147352961E-16, -1.000000000000000000 ) ) ;
#197 = PERSON_AND_ORGANIZATION_ROLE ( 'classification_officer' ) ;
#198 = DIRECTION ( 'NONE',  ( 0.0000000000000000000, 1.000000000000000000, 0.0000000000000000000 ) ) ;
#199 = ORIENTED_EDGE ( 'NONE', *, *, #11, .T. ) ;
#200 = DIRECTION ( 'NONE',  ( 0.0000000000000000000, 1.000000000000000000, 0.0000000000000000000 ) ) ;
#201 = AXIS2_PLACEMENT_3D ( 'NONE', #47, #196, #27 ) ;
#202 = ORIENTED_EDGE ( 'NONE', *, *, #188, .F. ) ;
#203 = VERTEX_POINT ( 'NONE', #224 ) ;
#204 = VERTEX_POINT ( 'NONE', #255 ) ;
#205 = CLOSED_SHELL ( 'NONE', ( #31, #63, #108, #88 ) ) ;
#206 = LOCAL_TIME ( 15, 47, 24.00000000000000000, #261 ) ;
#207 = PERSON_AND_ORGANIZATION_ROLE ( 'creator' ) ;
#208 = DIRECTION ( 'NONE',  ( 0.0000000000000000000, -1.000000000000000000, 0.0000000000000000000 ) ) ;
#209 = CALENDAR_DATE ( 2021, 26, 11 ) ;
#210 = FACE_OUTER_BOUND ( 'NONE', #56, .T. ) ;
#211 = EDGE_CURVE ( 'NONE', #185, #185, #256, .T. ) ;
#212 = CARTESIAN_POINT ( 'NONE',  ( -1.288862827271377137E-31, 4.520722245878841815E-33, -3.691449852338115647E-17 ) ) ;
#213 = AXIS2_PLACEMENT_3D ( 'NONE', #138, #142, #94 ) ;
#214 = FACE_OUTER_BOUND ( 'NONE', #113, .T. ) ;
#215 = CALENDAR_DATE ( 2021, 26, 11 ) ;
#216 = CARTESIAN_POINT ( 'NONE',  ( 1.047444401652940007E-14, -3.673940397442059375E-16, 3.000000000000000000 ) ) ;
#217 = CARTESIAN_POINT ( 'NONE',  ( 3.491481338843133355E-16, -1.224646799147352807E-17, 0.09999999999999999167 ) ) ;
#218 = DATE_AND_TIME ( #241, #206 ) ;
#219 = AXIS2_PLACEMENT_3D ( 'NONE', #98, #9, #198 ) ;
#220 = VERTEX_POINT ( 'NONE', #52 ) ;
#221 = EDGE_LOOP ( 'NONE', ( #14 ) ) ;
#222 = FACE_OUTER_BOUND ( 'NONE', #16, .T. ) ;
#223 = DATE_AND_TIME ( #215, #174 ) ;
#224 = CARTESIAN_POINT ( 'NONE',  ( 1.047444401652940007E-14, 0.2484999999999992215, 3.000000000000000000 ) ) ;
#225 = ORIENTED_EDGE ( 'NONE', *, *, #152, .T. ) ;
#226 = EDGE_CURVE ( 'NONE', #276, #276, #144, .T. ) ;
#227 = ORIENTED_EDGE ( 'NONE', *, *, #272, .F. ) ;
#228 =( NAMED_UNIT ( * ) SI_UNIT ( $, .STERADIAN. ) SOLID_ANGLE_UNIT ( ) );
#229 = AXIS2_PLACEMENT_3D ( 'NONE', #128, #282, #279 ) ;
#230 = AXIS2_PLACEMENT_3D ( 'NONE', #130, #39, #208 ) ;
#231 = UNCERTAINTY_MEASURE_WITH_UNIT (LENGTH_MEASURE( 1.000000000000000082E-05 ), #13, 'distance_accuracy_value', 'NONE');
#232 = DIRECTION ( 'NONE',  ( 3.491481338843133355E-15, -1.224646799147352961E-16, 1.000000000000000000 ) ) ;
#233 = AXIS2_PLACEMENT_3D ( 'NONE', #153, #24, #234 ) ;
#234 = DIRECTION ( 'NONE',  ( -3.875110552087004997E-31, -1.000000000000000000, -1.090746652399907046E-16 ) ) ;
#235 = DIRECTION ( 'NONE',  ( -3.491481338843133355E-15, 1.224646799147352961E-16, -1.000000000000000000 ) ) ;
#236 = MECHANICAL_CONTEXT ( 'NONE', #257, 'mechanical' ) ;
#237 = ADVANCED_FACE ( 'NONE', ( #222, #179 ), #171, .T. ) ;
#238 = MANIFOLD_SOLID_BREP ( 'Corps-Déplacer/Copier1[2]', #205 ) ;
#239 = DIRECTION ( 'NONE',  ( 0.0000000000000000000, 1.000000000000000000, 0.0000000000000000000 ) ) ;
#240 = CARTESIAN_POINT ( 'NONE',  ( 1.316288464743861212E-13, -4.616918432785520292E-15, 37.69999999999999574 ) ) ;
#241 = CALENDAR_DATE ( 2021, 26, 11 ) ;
#242 = DIRECTION ( 'NONE',  ( -3.491481338843133355E-15, 1.224646799147352961E-16, -1.000000000000000000 ) ) ;
#243 = SECURITY_CLASSIFICATION_LEVEL ( 'unclassified' ) ;
#244 = DIRECTION ( 'NONE',  ( -3.491481338843133355E-15, 1.224646799147352961E-16, -1.000000000000000000 ) ) ;
#245 = ADVANCED_BREP_SHAPE_REPRESENTATION ( '954359', ( #151, #238, #274 ), #106 ) ;
#246 = CC_DESIGN_SECURITY_CLASSIFICATION ( #96, ( #34 ) ) ;
#247 = ORIENTED_EDGE ( 'NONE', *, *, #272, .T. ) ;
#248 = DATE_TIME_ROLE ( 'classification_date' ) ;
#249 = ADVANCED_FACE ( 'NONE', ( #167, #26 ), #74, .T. ) ;
#250 = PRODUCT_DEFINITION_SHAPE ( 'NONE', 'NONE',  #48 ) ;
#251 = CONICAL_SURFACE ( 'NONE', #233, 0.2484999999999992770, 0.5235987755982929315 ) ;
#252 = EDGE_LOOP ( 'NONE', ( #202 ) ) ;
#253 = EDGE_LOOP ( 'NONE', ( #57 ) ) ;
#254 = LOCAL_TIME ( 15, 47, 24.00000000000000000, #180 ) ;
#255 = CARTESIAN_POINT ( 'NONE',  ( 1.745740669421566993E-14, 0.2484999999999991660, 5.000000000000000888 ) ) ;
#256 = CIRCLE ( 'NONE', #268, 0.2788844939755807939 ) ;
#257 = APPLICATION_CONTEXT ( 'configuration controlled 3d designs of mechanical parts and assemblies' ) ;
#258 = CC_DESIGN_APPROVAL ( #41, ( #34 ) ) ;
#259 = CIRCLE ( 'NONE', #45, 0.2484999999999995823 ) ;
#260 = FACE_OUTER_BOUND ( 'NONE', #12, .T. ) ;
#261 = COORDINATED_UNIVERSAL_TIME_OFFSET ( 1, 0, .AHEAD. ) ;
#262 = CARTESIAN_POINT ( 'NONE',  ( 1.047444401652940007E-14, 0.2484999999999992215, 3.000000000000000000 ) ) ;
#263 = EDGE_LOOP ( 'NONE', ( #227 ) ) ;
#264 = AXIS2_PLACEMENT_3D ( 'NONE', #87, #175, #133 ) ;
#265 = CARTESIAN_POINT ( 'NONE',  ( 1.047444401652940007E-14, -3.673940397442059375E-16, 3.000000000000000000 ) ) ;
#266 = APPROVAL_PERSON_ORGANIZATION ( #65, #41, #5 ) ;
#267 = CARTESIAN_POINT ( 'NONE',  ( 1.866998543791203065E-14, -6.548549365651903409E-16, 5.347296355333847728 ) ) ;
#268 = AXIS2_PLACEMENT_3D ( 'NONE', #267, #169, #95 ) ;
#269 = DIRECTION ( 'NONE',  ( 4.275831445896957731E-31, 1.000000000000000000, 1.224646799147352961E-16 ) ) ;
#270 = PERSON_AND_ORGANIZATION ( #123, #154 ) ;
#271 = CARTESIAN_POINT ( 'NONE',  ( 0.0000000000000000000, 0.0000000000000000000, 0.0000000000000000000 ) ) ;
#272 = EDGE_CURVE ( 'NONE', #203, #203, #277, .T. ) ;
#273 = CARTESIAN_POINT ( 'NONE',  ( 4.284950682894400926E-14, 1.499999999999995559, 12.27258652430367825 ) ) ;
#274 = AXIS2_PLACEMENT_3D ( 'NONE', #271, #76, #176 ) ;
#275 = ORIENTED_EDGE ( 'NONE', *, *, #188, .T. ) ;
#276 = VERTEX_POINT ( 'NONE', #273 ) ;
#277 = CIRCLE ( 'NONE', #159, 0.2484999999999995823 ) ;
#278 = PERSON_AND_ORGANIZATION_ROLE ( 'design_owner' ) ;
#279 = DIRECTION ( 'NONE',  ( -4.275831445896957731E-31, -1.000000000000000000, -1.224646799147352961E-16 ) ) ;
#280 = FACE_OUTER_BOUND ( 'NONE', #120, .T. ) ;
#281 = DIRECTION ( 'NONE',  ( 3.491481338843133355E-15, -1.224646799147352961E-16, 1.000000000000000000 ) ) ;
#282 = DIRECTION ( 'NONE',  ( 3.491481338843133355E-15, -1.224646799147352961E-16, 1.000000000000000000 ) ) ;
#283 = CIRCLE ( 'NONE', #36, 1.200000000000003286 ) ;
ENDSEC;
END-ISO-10303-21;
