ISO-10303-21;
HEADER;
FILE_DESCRIPTION (( 'STEP AP203' ),
    '1' );
FILE_NAME ('954331.step',
    '2021-12-07T09:46:41',
    ( '' ),
    ( '' ),
    'SwSTEP 2.0',
    'SolidWorks 2019',
    '' );
FILE_SCHEMA (( 'CONFIG_CONTROL_DESIGN' ));
ENDSEC;

DATA;
#1 = PRODUCT_DEFINITION_FORMATION_WITH_SPECIFIED_SOURCE ( 'ANY', '', #171, .NOT_KNOWN. ) ;
#2 = DIRECTION ( 'NONE',  ( 3.491481338843133355E-15, -1.224646799147353207E-16, 1.000000000000000000 ) ) ;
#3 = FACE_OUTER_BOUND ( 'NONE', #231, .T. ) ;
#4 = FACE_OUTER_BOUND ( 'NONE', #94, .T. ) ;
#5 = AXIS2_PLACEMENT_3D ( 'NONE', #93, #108, #170 ) ;
#6 = COORDINATED_UNIVERSAL_TIME_OFFSET ( 1, 0, .AHEAD. ) ;
#7 = CARTESIAN_POINT ( 'NONE',  ( 0.0000000000000000000, 0.0000000000000000000, 0.0000000000000000000 ) ) ;
#8 = CALENDAR_DATE ( 2021, 7, 12 ) ;
#9 = DIRECTION ( 'NONE',  ( 3.491481338843133355E-15, -1.224646799147353207E-16, 1.000000000000000000 ) ) ;
#10 = EDGE_LOOP ( 'NONE', ( #249 ) ) ;
#11 = CARTESIAN_POINT ( 'NONE',  ( 3.491481338843129017E-15, 15.00000000000000000, 0.9999999999999986677 ) ) ;
#12 = APPROVAL_ROLE ( '' ) ;
#13 = EDGE_LOOP ( 'NONE', ( #189 ) ) ;
#14 = CIRCLE ( 'NONE', #205, 6.500000000000000000 ) ;
#15 = EDGE_LOOP ( 'NONE', ( #131 ) ) ;
#16 = ORIENTED_EDGE ( 'NONE', *, *, #193, .T. ) ;
#17 =( NAMED_UNIT ( * ) SI_UNIT ( $, .STERADIAN. ) SOLID_ANGLE_UNIT ( ) );
#18 = AXIS2_PLACEMENT_3D ( 'NONE', #221, #42, #199 ) ;
#19 = CARTESIAN_POINT ( 'NONE',  ( 1.047444401652848400E-16, -3.673940397441737945E-18, 0.02999999999999737599 ) ) ;
#20 = CARTESIAN_POINT ( 'NONE',  ( 3.491481338843122706E-15, -1.224646799147349509E-16, 0.9999999999999970024 ) ) ;
#21 = APPROVAL ( #72, 'UNSPECIFIED' ) ;
#22 = FACE_OUTER_BOUND ( 'NONE', #111, .T. ) ;
#23 = COORDINATED_UNIVERSAL_TIME_OFFSET ( 1, 0, .AHEAD. ) ;
#24 = DESIGN_CONTEXT ( 'detailed design', #195, 'design' ) ;
#25 = CARTESIAN_POINT ( 'NONE',  ( -1.262151673702546197E-29, 4.427032131153953671E-31, -3.614946067908090780E-15 ) ) ;
#26 = CALENDAR_DATE ( 2021, 7, 12 ) ;
#27 = DIRECTION ( 'NONE',  ( 4.275831445896957731E-31, 1.000000000000000000, 1.224646799147352961E-16 ) ) ;
#28 = PERSON_AND_ORGANIZATION ( #133, #147 ) ;
#29 = CC_DESIGN_PERSON_AND_ORGANIZATION_ASSIGNMENT ( #28, #159, ( #56 ) ) ;
#30 = EDGE_LOOP ( 'NONE', ( #169 ) ) ;
#31 = AXIS2_PLACEMENT_3D ( 'NONE', #86, #65, #139 ) ;
#32 = ADVANCED_FACE ( 'NONE', ( #152, #99 ), #213, .F. ) ;
#33 = CARTESIAN_POINT ( 'NONE',  ( 0.0000000000000000000, 25.00000000000000000, 0.0000000000000000000 ) ) ;
#34 = AXIS2_PLACEMENT_3D ( 'NONE', #25, #67, #27 ) ;
#35 = ORIENTED_EDGE ( 'NONE', *, *, #158, .T. ) ;
#36 = AXIS2_PLACEMENT_3D ( 'NONE', #19, #177, #201 ) ;
#37 =( GEOMETRIC_REPRESENTATION_CONTEXT ( 3 ) GLOBAL_UNCERTAINTY_ASSIGNED_CONTEXT ( ( #44 ) ) GLOBAL_UNIT_ASSIGNED_CONTEXT ( ( #61, #112, #17 ) ) REPRESENTATION_CONTEXT ( 'NONE', 'WORKASPACE' ) );
#38 = LOCAL_TIME ( 10, 46, 41.00000000000000000, #227 ) ;
#39 = DIRECTION ( 'NONE',  ( -3.491481338843133355E-15, 1.224646799147353207E-16, -1.000000000000000000 ) ) ;
#40 = FACE_BOUND ( 'NONE', #30, .T. ) ;
#41 = APPLICATION_PROTOCOL_DEFINITION ( 'international standard', 'config_control_design', 1994, #195 ) ;
#42 = DIRECTION ( 'NONE',  ( -3.491481338843133355E-15, 1.224646799147353207E-16, -1.000000000000000000 ) ) ;
#43 = PERSON_AND_ORGANIZATION ( #133, #147 ) ;
#44 = UNCERTAINTY_MEASURE_WITH_UNIT (LENGTH_MEASURE( 1.000000000000000082E-05 ), #61, 'distance_accuracy_value', 'NONE');
#45 = CARTESIAN_POINT ( 'NONE',  ( 1.047444401652848400E-16, -3.673940397441737945E-18, 0.02999999999999737599 ) ) ;
#46 = APPROVAL_ROLE ( '' ) ;
#47 = CARTESIAN_POINT ( 'NONE',  ( 3.491481338843126650E-15, -1.224646799147350742E-16, 0.9999999999999981126 ) ) ;
#48 = PERSON_AND_ORGANIZATION ( #133, #147 ) ;
#49 = EDGE_LOOP ( 'NONE', ( #52 ) ) ;
#50 = CALENDAR_DATE ( 2021, 7, 12 ) ;
#51 = CIRCLE ( 'NONE', #34, 6.500000000000000000 ) ;
#52 = ORIENTED_EDGE ( 'NONE', *, *, #218, .F. ) ;
#53 = CARTESIAN_POINT ( 'NONE',  ( 3.491481338843129805E-15, 6.500000000000000000, 0.9999999999999988898 ) ) ;
#54 = EDGE_LOOP ( 'NONE', ( #78 ) ) ;
#55 = CLOSED_SHELL ( 'NONE', ( #74, #137, #132, #125, #143, #85, #32, #155 ) ) ;
#56 = SECURITY_CLASSIFICATION ( '', '', #107 ) ;
#57 = EDGE_LOOP ( 'NONE', ( #206 ) ) ;
#58 = EDGE_CURVE ( 'NONE', #209, #209, #82, .T. ) ;
#59 = AXIS2_PLACEMENT_3D ( 'NONE', #200, #178, #198 ) ;
#60 = DIRECTION ( 'NONE',  ( -3.491481338843133355E-15, 1.224646799147353207E-16, -1.000000000000000000 ) ) ;
#61 =( LENGTH_UNIT ( ) NAMED_UNIT ( * ) SI_UNIT ( .MILLI., .METRE. ) );
#62 = AXIS2_PLACEMENT_3D ( 'NONE', #114, #2, #197 ) ;
#63 = DIRECTION ( 'NONE',  ( 4.275831445896958607E-31, 1.000000000000000000, 1.224646799147352961E-16 ) ) ;
#64 = CALENDAR_DATE ( 2021, 7, 12 ) ;
#65 = DIRECTION ( 'NONE',  ( -3.491481338843133355E-15, 1.224646799147353207E-16, -1.000000000000000000 ) ) ;
#66 = APPROVAL_ROLE ( '' ) ;
#67 = DIRECTION ( 'NONE',  ( -3.491481338843133355E-15, 1.224646799147353207E-16, -1.000000000000000000 ) ) ;
#68 = APPROVAL_STATUS ( 'not_yet_approved' ) ;
#69 = CC_DESIGN_PERSON_AND_ORGANIZATION_ASSIGNMENT ( #183, #244, ( #1 ) ) ;
#70 = CYLINDRICAL_SURFACE ( 'NONE', #88, 6.500000000000000000 ) ;
#71 = CIRCLE ( 'NONE', #5, 15.00000000000000000 ) ;
#72 = APPROVAL_STATUS ( 'not_yet_approved' ) ;
#73 = DIRECTION ( 'NONE',  ( 4.314083075427408311E-31, 1.000000000000000000, 1.214306433183764966E-16 ) ) ;
#74 = ADVANCED_FACE ( 'NONE', ( #3, #237 ), #113, .T. ) ;
#75 = CIRCLE ( 'NONE', #97, 15.00000000000000000 ) ;
#76 = CC_DESIGN_APPROVAL ( #242, ( #232 ) ) ;
#77 = ORIENTED_EDGE ( 'NONE', *, *, #116, .T. ) ;
#78 = ORIENTED_EDGE ( 'NONE', *, *, #116, .F. ) ;
#79 = APPLICATION_CONTEXT ( 'configuration controlled 3d designs of mechanical parts and assemblies' ) ;
#80 = ORIENTED_EDGE ( 'NONE', *, *, #58, .F. ) ;
#81 = EDGE_CURVE ( 'NONE', #172, #172, #145, .T. ) ;
#82 = CIRCLE ( 'NONE', #216, 15.00000000000000000 ) ;
#83 = AXIS2_PLACEMENT_3D ( 'NONE', #135, #9, #243 ) ;
#84 = FACE_OUTER_BOUND ( 'NONE', #234, .T. ) ;
#85 = ADVANCED_FACE ( 'NONE', ( #84, #163 ), #196, .T. ) ;
#86 = CARTESIAN_POINT ( 'NONE',  ( -4.428799862558225090E-30, 15.00000000000000000, -1.268458694963457148E-15 ) ) ;
#87 = DATE_AND_TIME ( #105, #181 ) ;
#88 = AXIS2_PLACEMENT_3D ( 'NONE', #141, #219, #89 ) ;
#89 = DIRECTION ( 'NONE',  ( 4.275831445896958607E-31, 1.000000000000000000, 1.224646799147353207E-16 ) ) ;
#90 = PLANE ( 'NONE',  #83 ) ;
#91 = DATE_TIME_ROLE ( 'creation_date' ) ;
#92 = COORDINATED_UNIVERSAL_TIME_OFFSET ( 1, 0, .AHEAD. ) ;
#93 = CARTESIAN_POINT ( 'NONE',  ( -9.063577325781862977E-30, 3.179074978106871660E-31, -2.595911719460882693E-15 ) ) ;
#94 = EDGE_LOOP ( 'NONE', ( #77 ) ) ;
#95 = ORIENTED_EDGE ( 'NONE', *, *, #188, .F. ) ;
#96 = CARTESIAN_POINT ( 'NONE',  ( 3.491481338843141244E-15, 25.00000000000000000, 1.000000000000002220 ) ) ;
#97 = AXIS2_PLACEMENT_3D ( 'NONE', #20, #245, #184 ) ;
#98 = CARTESIAN_POINT ( 'NONE',  ( 0.0000000000000000000, 0.0000000000000000000, 0.0000000000000000000 ) ) ;
#99 = FACE_BOUND ( 'NONE', #15, .T. ) ;
#100 = CARTESIAN_POINT ( 'NONE',  ( 0.0000000000000000000, 0.0000000000000000000, 0.0000000000000000000 ) ) ;
#101 = AXIS2_PLACEMENT_3D ( 'NONE', #7, #60, #238 ) ;
#102 = APPROVAL_PERSON_ORGANIZATION ( #162, #21, #12 ) ;
#103 = FACE_OUTER_BOUND ( 'NONE', #10, .T. ) ;
#104 = EDGE_CURVE ( 'NONE', #233, #233, #75, .T. ) ;
#105 = CALENDAR_DATE ( 2021, 7, 12 ) ;
#106 = FACE_OUTER_BOUND ( 'NONE', #126, .T. ) ;
#107 = SECURITY_CLASSIFICATION_LEVEL ( 'unclassified' ) ;
#108 = DIRECTION ( 'NONE',  ( -3.491481338843133355E-15, 1.224646799147353207E-16, -1.000000000000000000 ) ) ;
#109 = VERTEX_POINT ( 'NONE', #96 ) ;
#110 = CC_DESIGN_APPROVAL ( #21, ( #1 ) ) ;
#111 = EDGE_LOOP ( 'NONE', ( #190 ) ) ;
#112 =( NAMED_UNIT ( * ) PLANE_ANGLE_UNIT ( ) SI_UNIT ( $, .RADIAN. ) );
#113 = PLANE ( 'NONE',  #31 ) ;
#114 = CARTESIAN_POINT ( 'NONE',  ( 3.491481338843130200E-15, -1.224646799147352221E-16, 0.9999999999999991118 ) ) ;
#115 = PERSON_AND_ORGANIZATION_ROLE ( 'design_supplier' ) ;
#116 = EDGE_CURVE ( 'NONE', #191, #191, #51, .T. ) ;
#117 = FACE_OUTER_BOUND ( 'NONE', #173, .T. ) ;
#118 = APPROVAL_DATE_TIME ( #87, #242 ) ;
#119 = CIRCLE ( 'NONE', #166, 25.00000000000000000 ) ;
#120 = DIRECTION ( 'NONE',  ( 4.365441207277734308E-31, 1.000000000000000000, 1.228762462150238276E-16 ) ) ;
#121 = APPROVAL_DATE_TIME ( #140, #148 ) ;
#122 = DIRECTION ( 'NONE',  ( 4.740750632337811128E-31, 1.000000000000000000, 1.334402673828313093E-16 ) ) ;
#123 = PERSON_AND_ORGANIZATION_ROLE ( 'creator' ) ;
#124 = CARTESIAN_POINT ( 'NONE',  ( -2.649830156936425943E-30, 15.00000000000000000, -7.589415207398531038E-16 ) ) ;
#125 = ADVANCED_FACE ( 'NONE', ( #222, #106 ), #165, .T. ) ;
#126 = EDGE_LOOP ( 'NONE', ( #80 ) ) ;
#127 = LOCAL_TIME ( 10, 46, 41.00000000000000000, #247 ) ;
#128 = ORIENTED_EDGE ( 'NONE', *, *, #188, .T. ) ;
#129 = MANIFOLD_SOLID_BREP ( 'Corps-Déplacer/Copier1', #55 ) ;
#130 = AXIS2_PLACEMENT_3D ( 'NONE', #100, #161, #240 ) ;
#131 = ORIENTED_EDGE ( 'NONE', *, *, #81, .F. ) ;
#132 = ADVANCED_FACE ( 'NONE', ( #156, #103 ), #90, .T. ) ;
#133 = PERSON ( 'UNSPECIFIED', 'UNSPECIFIED', 'UNSPECIFIED', ('UNSPECIFIED'), ('UNSPECIFIED'), ('UNSPECIFIED') ) ;
#134 = DIRECTION ( 'NONE',  ( -3.491481338843133355E-15, 1.224646799147353207E-16, -1.000000000000000000 ) ) ;
#135 = CARTESIAN_POINT ( 'NONE',  ( 3.491481338843127439E-15, 6.500000000000000000, 0.9999999999999983347 ) ) ;
#136 = APPROVAL_STATUS ( 'not_yet_approved' ) ;
#137 = ADVANCED_FACE ( 'NONE', ( #4, #182 ), #70, .F. ) ;
#138 = DIRECTION ( 'NONE',  ( -3.491481338843133355E-15, 1.224646799147353207E-16, -1.000000000000000000 ) ) ;
#139 = DIRECTION ( 'NONE',  ( 4.275831445896958607E-31, 1.000000000000000000, 1.224646799147353207E-16 ) ) ;
#140 = DATE_AND_TIME ( #50, #38 ) ;
#141 = CARTESIAN_POINT ( 'NONE',  ( 0.0000000000000000000, 0.0000000000000000000, 0.0000000000000000000 ) ) ;
#142 = DATE_AND_TIME ( #64, #239 ) ;
#143 = ADVANCED_FACE ( 'NONE', ( #40, #225 ), #175, .F. ) ;
#144 = DATE_AND_TIME ( #26, #127 ) ;
#145 = CIRCLE ( 'NONE', #36, 15.00000000000000000 ) ;
#146 = DIRECTION ( 'NONE',  ( -3.491481338843133355E-15, 1.224646799147353207E-16, -1.000000000000000000 ) ) ;
#147 = ORGANIZATION ( 'UNSPECIFIED', 'UNSPECIFIED', '' ) ;
#148 = APPROVAL ( #68, 'UNSPECIFIED' ) ;
#149 = PRODUCT_DEFINITION_SHAPE ( 'NONE', 'NONE',  #232 ) ;
#150 = CARTESIAN_POINT ( 'NONE',  ( 1.047444401652912495E-16, 15.00000000000000000, 0.02999999999999921133 ) ) ;
#151 = EDGE_LOOP ( 'NONE', ( #95 ) ) ;
#152 = FACE_OUTER_BOUND ( 'NONE', #192, .T. ) ;
#153 = APPROVAL_PERSON_ORGANIZATION ( #164, #148, #46 ) ;
#154 = APPLICATION_PROTOCOL_DEFINITION ( 'international standard', 'config_control_design', 1994, #79 ) ;
#155 = ADVANCED_FACE ( 'NONE', ( #22, #117 ), #176, .T. ) ;
#156 = FACE_BOUND ( 'NONE', #207, .T. ) ;
#157 = DIRECTION ( 'NONE',  ( -3.491481338843133355E-15, 1.224646799147353207E-16, -1.000000000000000000 ) ) ;
#158 = EDGE_CURVE ( 'NONE', #168, #168, #14, .T. ) ;
#159 = PERSON_AND_ORGANIZATION_ROLE ( 'classification_officer' ) ;
#160 = AXIS2_PLACEMENT_3D ( 'NONE', #45, #134, #179 ) ;
#161 = DIRECTION ( 'NONE',  ( -3.491481338843133355E-15, 1.224646799147353207E-16, -1.000000000000000000 ) ) ;
#162 = PERSON_AND_ORGANIZATION ( #133, #147 ) ;
#163 = FACE_OUTER_BOUND ( 'NONE', #151, .T. ) ;
#164 = PERSON_AND_ORGANIZATION ( #133, #147 ) ;
#165 = CYLINDRICAL_SURFACE ( 'NONE', #235, 15.00000000000000000 ) ;
#166 = AXIS2_PLACEMENT_3D ( 'NONE', #248, #146, #73 ) ;
#167 = ORIENTED_EDGE ( 'NONE', *, *, #218, .T. ) ;
#168 = VERTEX_POINT ( 'NONE', #53 ) ;
#169 = ORIENTED_EDGE ( 'NONE', *, *, #58, .T. ) ;
#170 = DIRECTION ( 'NONE',  ( 4.275831445896958607E-31, 1.000000000000000000, 1.224646799147352961E-16 ) ) ;
#171 = PRODUCT ( '954331', '954331', '', ( #204 ) ) ;
#172 = VERTEX_POINT ( 'NONE', #150 ) ;
#173 = EDGE_LOOP ( 'NONE', ( #228 ) ) ;
#174 = CC_DESIGN_PERSON_AND_ORGANIZATION_ASSIGNMENT ( #43, #180, ( #171 ) ) ;
#175 = CONICAL_SURFACE ( 'NONE', #62, 25.00000000000000000, 1.567796335794847895 ) ;
#176 = CYLINDRICAL_SURFACE ( 'NONE', #130, 15.00000000000000000 ) ;
#177 = DIRECTION ( 'NONE',  ( -3.491481338843133355E-15, 1.224646799147353207E-16, -1.000000000000000000 ) ) ;
#178 = DIRECTION ( 'NONE',  ( 0.0000000000000000000, 0.0000000000000000000, 1.000000000000000000 ) ) ;
#179 = DIRECTION ( 'NONE',  ( 4.277169418159986582E-31, 1.000000000000000000, 1.224244953098215506E-16 ) ) ;
#180 = PERSON_AND_ORGANIZATION_ROLE ( 'design_owner' ) ;
#181 = LOCAL_TIME ( 10, 46, 41.00000000000000000, #6 ) ;
#182 = FACE_OUTER_BOUND ( 'NONE', #57, .T. ) ;
#183 = PERSON_AND_ORGANIZATION ( #133, #147 ) ;
#184 = DIRECTION ( 'NONE',  ( 4.108650548026103445E-31, 1.000000000000000000, 1.156482317317871478E-16 ) ) ;
#185 = PRODUCT_RELATED_PRODUCT_CATEGORY ( 'detail', '', ( #171 ) ) ;
#186 = DATE_TIME_ROLE ( 'classification_date' ) ;
#187 = CIRCLE ( 'NONE', #18, 25.00000000000000000 ) ;
#188 = EDGE_CURVE ( 'NONE', #246, #246, #187, .T. ) ;
#189 = ORIENTED_EDGE ( 'NONE', *, *, #104, .T. ) ;
#190 = ORIENTED_EDGE ( 'NONE', *, *, #81, .T. ) ;
#191 = VERTEX_POINT ( 'NONE', #230 ) ;
#192 = EDGE_LOOP ( 'NONE', ( #128 ) ) ;
#193 = EDGE_CURVE ( 'NONE', #226, #226, #71, .T. ) ;
#194 = CC_DESIGN_PERSON_AND_ORGANIZATION_ASSIGNMENT ( #48, #123, ( #232 ) ) ;
#195 = APPLICATION_CONTEXT ( 'configuration controlled 3d designs of mechanical parts and assemblies' ) ;
#196 = CYLINDRICAL_SURFACE ( 'NONE', #101, 25.00000000000000000 ) ;
#197 = DIRECTION ( 'NONE',  ( -4.314083075427408311E-31, -1.000000000000000000, -1.214306433183764966E-16 ) ) ;
#198 = DIRECTION ( 'NONE',  ( 1.000000000000000000, 0.0000000000000000000, 0.0000000000000000000 ) ) ;
#199 = DIRECTION ( 'NONE',  ( 4.275831445896958607E-31, 1.000000000000000000, 1.224646799147353207E-16 ) ) ;
#200 = CARTESIAN_POINT ( 'NONE',  ( 0.0000000000000000000, 0.0000000000000000000, 0.0000000000000000000 ) ) ;
#201 = DIRECTION ( 'NONE',  ( 4.277169418159986582E-31, 1.000000000000000000, 1.224244953098215506E-16 ) ) ;
#202 = SHAPE_DEFINITION_REPRESENTATION ( #149, #208 ) ;
#203 = APPROVAL_DATE_TIME ( #144, #21 ) ;
#204 = MECHANICAL_CONTEXT ( 'NONE', #79, 'mechanical' ) ;
#205 = AXIS2_PLACEMENT_3D ( 'NONE', #47, #138, #122 ) ;
#206 = ORIENTED_EDGE ( 'NONE', *, *, #158, .F. ) ;
#207 = EDGE_LOOP ( 'NONE', ( #35 ) ) ;
#208 = ADVANCED_BREP_SHAPE_REPRESENTATION ( '954331', ( #129, #59 ), #37 ) ;
#209 = VERTEX_POINT ( 'NONE', #229 ) ;
#210 = APPROVAL_PERSON_ORGANIZATION ( #223, #242, #66 ) ;
#211 = CC_DESIGN_DATE_AND_TIME_ASSIGNMENT ( #142, #91, ( #232 ) ) ;
#212 = CC_DESIGN_PERSON_AND_ORGANIZATION_ASSIGNMENT ( #220, #115, ( #1 ) ) ;
#213 = CONICAL_SURFACE ( 'NONE', #160, 15.00000000000000000, 1.567796335794847895 ) ;
#214 = CC_DESIGN_APPROVAL ( #148, ( #56 ) ) ;
#215 = CARTESIAN_POINT ( 'NONE',  ( 3.386736898677828547E-15, -1.187907395172928995E-16, 0.9699999999999968647 ) ) ;
#216 = AXIS2_PLACEMENT_3D ( 'NONE', #215, #39, #120 ) ;
#217 = CC_DESIGN_SECURITY_CLASSIFICATION ( #56, ( #1 ) ) ;
#218 = EDGE_CURVE ( 'NONE', #109, #109, #119, .T. ) ;
#219 = DIRECTION ( 'NONE',  ( -3.491481338843133355E-15, 1.224646799147353207E-16, -1.000000000000000000 ) ) ;
#220 = PERSON_AND_ORGANIZATION ( #133, #147 ) ;
#221 = CARTESIAN_POINT ( 'NONE',  ( -1.068957861474239634E-29, 3.749399456654644239E-31, -3.061616997868383043E-15 ) ) ;
#222 = FACE_OUTER_BOUND ( 'NONE', #13, .T. ) ;
#223 = PERSON_AND_ORGANIZATION ( #133, #147 ) ;
#224 = LOCAL_TIME ( 10, 46, 41.00000000000000000, #23 ) ;
#225 = FACE_OUTER_BOUND ( 'NONE', #49, .T. ) ;
#226 = VERTEX_POINT ( 'NONE', #124 ) ;
#227 = COORDINATED_UNIVERSAL_TIME_OFFSET ( 1, 0, .AHEAD. ) ;
#228 = ORIENTED_EDGE ( 'NONE', *, *, #193, .F. ) ;
#229 = CARTESIAN_POINT ( 'NONE',  ( 3.386736898677835253E-15, 15.00000000000000000, 0.9699999999999987521 ) ) ;
#230 = CARTESIAN_POINT ( 'NONE',  ( -9.842226297192439316E-30, 6.500000000000000000, -2.818925648462311528E-15 ) ) ;
#231 = EDGE_LOOP ( 'NONE', ( #16 ) ) ;
#232 = PRODUCT_DEFINITION ( 'UNKNOWN', '', #1, #24 ) ;
#233 = VERTEX_POINT ( 'NONE', #11 ) ;
#234 = EDGE_LOOP ( 'NONE', ( #167 ) ) ;
#235 = AXIS2_PLACEMENT_3D ( 'NONE', #98, #157, #63 ) ;
#236 = CC_DESIGN_DATE_AND_TIME_ASSIGNMENT ( #241, #186, ( #56 ) ) ;
#237 = FACE_BOUND ( 'NONE', #54, .T. ) ;
#238 = DIRECTION ( 'NONE',  ( 4.275831445896958607E-31, 1.000000000000000000, 1.224646799147353207E-16 ) ) ;
#239 = LOCAL_TIME ( 10, 46, 41.00000000000000000, #92 ) ;
#240 = DIRECTION ( 'NONE',  ( 4.275831445896958607E-31, 1.000000000000000000, 1.224646799147352961E-16 ) ) ;
#241 = DATE_AND_TIME ( #8, #224 ) ;
#242 = APPROVAL ( #136, 'UNSPECIFIED' ) ;
#243 = DIRECTION ( 'NONE',  ( -4.275831445896958607E-31, -1.000000000000000000, -1.224646799147353207E-16 ) ) ;
#244 = PERSON_AND_ORGANIZATION_ROLE ( 'creator' ) ;
#245 = DIRECTION ( 'NONE',  ( -3.491481338843133355E-15, 1.224646799147353207E-16, -1.000000000000000000 ) ) ;
#246 = VERTEX_POINT ( 'NONE', #33 ) ;
#247 = COORDINATED_UNIVERSAL_TIME_OFFSET ( 1, 0, .AHEAD. ) ;
#248 = CARTESIAN_POINT ( 'NONE',  ( 3.491481338843130200E-15, -1.224646799147352221E-16, 0.9999999999999991118 ) ) ;
#249 = ORIENTED_EDGE ( 'NONE', *, *, #104, .F. ) ;
ENDSEC;
END-ISO-10303-21;
