ISO-10303-21;
HEADER;
FILE_DESCRIPTION (( 'STEP AP203' ),
    '1' );
FILE_NAME ('954330.step',
    '2021-12-07T09:46:40',
    ( '' ),
    ( '' ),
    'SwSTEP 2.0',
    'SolidWorks 2019',
    '' );
FILE_SCHEMA (( 'CONFIG_CONTROL_DESIGN' ));
ENDSEC;

DATA;
#1 = PERSON ( 'UNSPECIFIED', 'UNSPECIFIED', 'UNSPECIFIED', ('UNSPECIFIED'), ('UNSPECIFIED'), ('UNSPECIFIED') ) ;
#2 = ORIENTED_EDGE ( 'NONE', *, *, #103, .F. ) ;
#3 = DIRECTION ( 'NONE',  ( 4.275831445896958607E-31, 1.000000000000000000, 1.224646799147353207E-16 ) ) ;
#4 = ADVANCED_FACE ( 'NONE', ( #81, #80 ), #214, .T. ) ;
#5 = ORIENTED_EDGE ( 'NONE', *, *, #112, .T. ) ;
#6 = ADVANCED_BREP_SHAPE_REPRESENTATION ( '954330', ( #35, #37 ), #29 ) ;
#7 = CARTESIAN_POINT ( 'NONE',  ( -9.063577325781862977E-30, 3.179074978106871660E-31, -2.595911719460882693E-15 ) ) ;
#8 = CARTESIAN_POINT ( 'NONE',  ( -1.262151673702546197E-29, 4.427032131153953671E-31, -3.614946067908090780E-15 ) ) ;
#9 = CIRCLE ( 'NONE', #154, 15.00000000000000000 ) ;
#10 = EDGE_CURVE ( 'NONE', #241, #241, #204, .T. ) ;
#11 = CARTESIAN_POINT ( 'NONE',  ( 1.047444401652848400E-16, -3.673940397441737945E-18, 0.02999999999999737599 ) ) ;
#12 = LOCAL_TIME ( 10, 46, 40.00000000000000000, #15 ) ;
#13 = DIRECTION ( 'NONE',  ( 4.277169418159986582E-31, 1.000000000000000000, 1.224244953098215506E-16 ) ) ;
#14 = VERTEX_POINT ( 'NONE', #244 ) ;
#15 = COORDINATED_UNIVERSAL_TIME_OFFSET ( 1, 0, .AHEAD. ) ;
#16 = DATE_TIME_ROLE ( 'classification_date' ) ;
#17 = CARTESIAN_POINT ( 'NONE',  ( 0.0000000000000000000, 0.0000000000000000000, 0.0000000000000000000 ) ) ;
#18 = PERSON_AND_ORGANIZATION_ROLE ( 'design_owner' ) ;
#19 = EDGE_LOOP ( 'NONE', ( #22 ) ) ;
#20 = APPROVAL ( #57, 'UNSPECIFIED' ) ;
#21 = DIRECTION ( 'NONE',  ( -3.491481338843133355E-15, 1.224646799147353207E-16, -1.000000000000000000 ) ) ;
#22 = ORIENTED_EDGE ( 'NONE', *, *, #67, .F. ) ;
#23 = FACE_BOUND ( 'NONE', #101, .T. ) ;
#24 = DIRECTION ( 'NONE',  ( -3.491481338843133355E-15, 1.224646799147353207E-16, -1.000000000000000000 ) ) ;
#25 = FACE_OUTER_BOUND ( 'NONE', #236, .T. ) ;
#26 = AXIS2_PLACEMENT_3D ( 'NONE', #170, #188, #186 ) ;
#27 = CONICAL_SURFACE ( 'NONE', #143, 15.00000000000000000, 1.567796335794847895 ) ;
#28 = CARTESIAN_POINT ( 'NONE',  ( -9.842226297192439316E-30, 6.500000000000000000, -2.818925648462311528E-15 ) ) ;
#29 =( GEOMETRIC_REPRESENTATION_CONTEXT ( 3 ) GLOBAL_UNCERTAINTY_ASSIGNED_CONTEXT ( ( #72 ) ) GLOBAL_UNIT_ASSIGNED_CONTEXT ( ( #226, #76, #60 ) ) REPRESENTATION_CONTEXT ( 'NONE', 'WORKASPACE' ) );
#30 = CARTESIAN_POINT ( 'NONE',  ( 0.0000000000000000000, 0.0000000000000000000, 0.0000000000000000000 ) ) ;
#31 = CALENDAR_DATE ( 2021, 7, 12 ) ;
#32 = SECURITY_CLASSIFICATION_LEVEL ( 'unclassified' ) ;
#33 = CALENDAR_DATE ( 2021, 7, 12 ) ;
#34 = APPROVAL ( #96, 'UNSPECIFIED' ) ;
#35 = MANIFOLD_SOLID_BREP ( 'Corps-Déplacer/Copier1', #135 ) ;
#36 = ORIENTED_EDGE ( 'NONE', *, *, #90, .F. ) ;
#37 = AXIS2_PLACEMENT_3D ( 'NONE', #174, #119, #227 ) ;
#38 = EDGE_CURVE ( 'NONE', #224, #224, #9, .T. ) ;
#39 = SHAPE_DEFINITION_REPRESENTATION ( #55, #6 ) ;
#40 = DIRECTION ( 'NONE',  ( 4.148156803295584847E-31, 1.000000000000000000, 1.167602339599773987E-16 ) ) ;
#41 = LOCAL_TIME ( 10, 46, 40.00000000000000000, #249 ) ;
#42 = APPROVAL ( #115, 'UNSPECIFIED' ) ;
#43 = PLANE ( 'NONE',  #84 ) ;
#44 = EDGE_LOOP ( 'NONE', ( #180 ) ) ;
#45 = DIRECTION ( 'NONE',  ( -3.491481338843133355E-15, 1.224646799147353207E-16, -1.000000000000000000 ) ) ;
#46 = AXIS2_PLACEMENT_3D ( 'NONE', #239, #223, #191 ) ;
#47 = FACE_OUTER_BOUND ( 'NONE', #44, .T. ) ;
#48 = VERTEX_POINT ( 'NONE', #28 ) ;
#49 = CARTESIAN_POINT ( 'NONE',  ( 1.047444401652848400E-16, -3.673940397441737945E-18, 0.02999999999999737599 ) ) ;
#50 = CIRCLE ( 'NONE', #199, 25.00000000000000000 ) ;
#51 = APPROVAL_PERSON_ORGANIZATION ( #159, #34, #229 ) ;
#52 = CYLINDRICAL_SURFACE ( 'NONE', #111, 25.00000000000000000 ) ;
#53 = APPLICATION_CONTEXT ( 'configuration controlled 3d designs of mechanical parts and assemblies' ) ;
#54 = PLANE ( 'NONE',  #46 ) ;
#55 = PRODUCT_DEFINITION_SHAPE ( 'NONE', 'NONE',  #75 ) ;
#56 = PERSON_AND_ORGANIZATION_ROLE ( 'creator' ) ;
#57 = APPROVAL_STATUS ( 'not_yet_approved' ) ;
#58 = CC_DESIGN_APPROVAL ( #34, ( #166 ) ) ;
#59 = ADVANCED_FACE ( 'NONE', ( #144, #217 ), #43, .T. ) ;
#60 =( NAMED_UNIT ( * ) SI_UNIT ( $, .STERADIAN. ) SOLID_ANGLE_UNIT ( ) );
#61 = EDGE_LOOP ( 'NONE', ( #219 ) ) ;
#62 = APPROVAL_DATE_TIME ( #212, #34 ) ;
#63 = EDGE_LOOP ( 'NONE', ( #106 ) ) ;
#64 = APPLICATION_PROTOCOL_DEFINITION ( 'international standard', 'config_control_design', 1994, #53 ) ;
#65 = CC_DESIGN_PERSON_AND_ORGANIZATION_ASSIGNMENT ( #192, #156, ( #158 ) ) ;
#66 = AXIS2_PLACEMENT_3D ( 'NONE', #114, #71, #109 ) ;
#67 = EDGE_CURVE ( 'NONE', #150, #150, #50, .T. ) ;
#68 = CC_DESIGN_APPROVAL ( #42, ( #158 ) ) ;
#69 = EDGE_LOOP ( 'NONE', ( #127 ) ) ;
#70 = DIRECTION ( 'NONE',  ( -3.491481338843133355E-15, 1.224646799147353207E-16, -1.000000000000000000 ) ) ;
#71 = DIRECTION ( 'NONE',  ( -3.491481338843133355E-15, 1.224646799147353207E-16, -1.000000000000000000 ) ) ;
#72 = UNCERTAINTY_MEASURE_WITH_UNIT (LENGTH_MEASURE( 1.000000000000000082E-05 ), #226, 'distance_accuracy_value', 'NONE');
#73 = CARTESIAN_POINT ( 'NONE',  ( 2.793185071074501162E-15, 15.00000000000000000, 0.7999999999999983791 ) ) ;
#74 = FACE_BOUND ( 'NONE', #163, .T. ) ;
#75 = PRODUCT_DEFINITION ( 'UNKNOWN', '', #158, #222 ) ;
#76 =( NAMED_UNIT ( * ) PLANE_ANGLE_UNIT ( ) SI_UNIT ( $, .RADIAN. ) );
#77 = DATE_TIME_ROLE ( 'creation_date' ) ;
#78 = ORIENTED_EDGE ( 'NONE', *, *, #103, .T. ) ;
#79 = COORDINATED_UNIVERSAL_TIME_OFFSET ( 1, 0, .AHEAD. ) ;
#80 = FACE_OUTER_BOUND ( 'NONE', #205, .T. ) ;
#81 = FACE_OUTER_BOUND ( 'NONE', #122, .T. ) ;
#82 = CC_DESIGN_PERSON_AND_ORGANIZATION_ASSIGNMENT ( #137, #179, ( #166 ) ) ;
#83 = CARTESIAN_POINT ( 'NONE',  ( 2.793185071074498007E-15, -9.797174393178796568E-17, 0.7999999999999974909 ) ) ;
#84 = AXIS2_PLACEMENT_3D ( 'NONE', #125, #70, #3 ) ;
#85 = DIRECTION ( 'NONE',  ( 4.365441207277734308E-31, 1.000000000000000000, 1.228762462150238276E-16 ) ) ;
#86 = ADVANCED_FACE ( 'NONE', ( #105, #165 ), #147, .T. ) ;
#87 = DIRECTION ( 'NONE',  ( 4.275831445896957731E-31, 1.000000000000000000, 1.224646799147352961E-16 ) ) ;
#88 = DIRECTION ( 'NONE',  ( -4.314083075427408311E-31, -1.000000000000000000, -1.214306433183764966E-16 ) ) ;
#89 = FACE_OUTER_BOUND ( 'NONE', #213, .T. ) ;
#90 = EDGE_CURVE ( 'NONE', #48, #48, #121, .T. ) ;
#91 = DIRECTION ( 'NONE',  ( 3.491481338843133355E-15, -1.224646799147353207E-16, 1.000000000000000000 ) ) ;
#92 = DIRECTION ( 'NONE',  ( -3.491481338843133355E-15, 1.224646799147353207E-16, -1.000000000000000000 ) ) ;
#93 = PRODUCT ( '954330', '954330', '', ( #232 ) ) ;
#94 = APPROVAL_ROLE ( '' ) ;
#95 = PERSON_AND_ORGANIZATION ( #1, #124 ) ;
#96 = APPROVAL_STATUS ( 'not_yet_approved' ) ;
#97 = ORIENTED_EDGE ( 'NONE', *, *, #112, .F. ) ;
#98 = DATE_AND_TIME ( #31, #99 ) ;
#99 = LOCAL_TIME ( 10, 46, 40.00000000000000000, #210 ) ;
#100 = CC_DESIGN_DATE_AND_TIME_ASSIGNMENT ( #194, #16, ( #166 ) ) ;
#101 = EDGE_LOOP ( 'NONE', ( #2 ) ) ;
#102 = APPROVAL_ROLE ( '' ) ;
#103 = EDGE_CURVE ( 'NONE', #190, #190, #220, .T. ) ;
#104 = EDGE_LOOP ( 'NONE', ( #78 ) ) ;
#105 = FACE_OUTER_BOUND ( 'NONE', #104, .T. ) ;
#106 = ORIENTED_EDGE ( 'NONE', *, *, #90, .T. ) ;
#107 = ADVANCED_FACE ( 'NONE', ( #128, #208 ), #54, .T. ) ;
#108 = DIRECTION ( 'NONE',  ( -3.491481338843133355E-15, 1.224646799147353207E-16, -1.000000000000000000 ) ) ;
#109 = DIRECTION ( 'NONE',  ( 4.275831445896958607E-31, 1.000000000000000000, 1.224646799147353207E-16 ) ) ;
#110 = DIRECTION ( 'NONE',  ( -3.491481338843133355E-15, 1.224646799147353207E-16, -1.000000000000000000 ) ) ;
#111 = AXIS2_PLACEMENT_3D ( 'NONE', #30, #24, #242 ) ;
#112 = EDGE_CURVE ( 'NONE', #243, #243, #123, .T. ) ;
#113 = CARTESIAN_POINT ( 'NONE',  ( 2.688440630909201087E-15, -9.429780353434577861E-17, 0.7699999999999965761 ) ) ;
#114 = CARTESIAN_POINT ( 'NONE',  ( 0.0000000000000000000, 0.0000000000000000000, 0.0000000000000000000 ) ) ;
#115 = APPROVAL_STATUS ( 'not_yet_approved' ) ;
#116 = AXIS2_PLACEMENT_3D ( 'NONE', #11, #110, #13 ) ;
#117 = COORDINATED_UNIVERSAL_TIME_OFFSET ( 1, 0, .AHEAD. ) ;
#118 = DATE_AND_TIME ( #33, #12 ) ;
#119 = DIRECTION ( 'NONE',  ( 0.0000000000000000000, 0.0000000000000000000, 1.000000000000000000 ) ) ;
#120 = ORIENTED_EDGE ( 'NONE', *, *, #164, .T. ) ;
#121 = CIRCLE ( 'NONE', #184, 6.500000000000000000 ) ;
#122 = EDGE_LOOP ( 'NONE', ( #238 ) ) ;
#123 = CIRCLE ( 'NONE', #189, 15.00000000000000000 ) ;
#124 = ORGANIZATION ( 'UNSPECIFIED', 'UNSPECIFIED', '' ) ;
#125 = CARTESIAN_POINT ( 'NONE',  ( -4.428799862558225090E-30, 15.00000000000000000, -1.268458694963457148E-15 ) ) ;
#126 = DIRECTION ( 'NONE',  ( -3.491481338843133355E-15, 1.224646799147353207E-16, -1.000000000000000000 ) ) ;
#127 = ORIENTED_EDGE ( 'NONE', *, *, #10, .T. ) ;
#128 = FACE_BOUND ( 'NONE', #69, .T. ) ;
#129 = CC_DESIGN_PERSON_AND_ORGANIZATION_ASSIGNMENT ( #95, #18, ( #93 ) ) ;
#130 = FACE_OUTER_BOUND ( 'NONE', #19, .T. ) ;
#131 = DIRECTION ( 'NONE',  ( -3.491481338843133355E-15, 1.224646799147353207E-16, -1.000000000000000000 ) ) ;
#132 = DIRECTION ( 'NONE',  ( 4.365441207277734308E-31, 1.000000000000000000, 1.228762462150238276E-16 ) ) ;
#133 = ADVANCED_FACE ( 'NONE', ( #89, #130 ), #52, .T. ) ;
#134 = CALENDAR_DATE ( 2021, 7, 12 ) ;
#135 = CLOSED_SHELL ( 'NONE', ( #59, #195, #107, #4, #237, #133, #151, #86 ) ) ;
#136 = CC_DESIGN_SECURITY_CLASSIFICATION ( #166, ( #158 ) ) ;
#137 = PERSON_AND_ORGANIZATION ( #1, #124 ) ;
#138 = PERSON_AND_ORGANIZATION ( #1, #124 ) ;
#139 = ORIENTED_EDGE ( 'NONE', *, *, #67, .T. ) ;
#140 = CARTESIAN_POINT ( 'NONE',  ( 2.793185071074494851E-15, -9.797174393178784242E-17, 0.7999999999999966027 ) ) ;
#141 = LOCAL_TIME ( 10, 46, 40.00000000000000000, #79 ) ;
#142 = CC_DESIGN_PERSON_AND_ORGANIZATION_ASSIGNMENT ( #197, #173, ( #158 ) ) ;
#143 = AXIS2_PLACEMENT_3D ( 'NONE', #49, #108, #149 ) ;
#144 = FACE_OUTER_BOUND ( 'NONE', #231, .T. ) ;
#145 = CIRCLE ( 'NONE', #26, 25.00000000000000000 ) ;
#146 = CC_DESIGN_PERSON_AND_ORGANIZATION_ASSIGNMENT ( #160, #56, ( #75 ) ) ;
#147 = CYLINDRICAL_SURFACE ( 'NONE', #157, 15.00000000000000000 ) ;
#148 = DIRECTION ( 'NONE',  ( 4.275831445896958607E-31, 1.000000000000000000, 1.224646799147353207E-16 ) ) ;
#149 = DIRECTION ( 'NONE',  ( 4.277169418159986582E-31, 1.000000000000000000, 1.224244953098215506E-16 ) ) ;
#150 = VERTEX_POINT ( 'NONE', #207 ) ;
#151 = ADVANCED_FACE ( 'NONE', ( #169, #23 ), #27, .F. ) ;
#152 = CARTESIAN_POINT ( 'NONE',  ( 2.793185071074500768E-15, 6.500000000000000000, 0.7999999999999982681 ) ) ;
#153 = VERTEX_POINT ( 'NONE', #225 ) ;
#154 = AXIS2_PLACEMENT_3D ( 'NONE', #140, #234, #85 ) ;
#155 = AXIS2_PLACEMENT_3D ( 'NONE', #221, #91, #88 ) ;
#156 = PERSON_AND_ORGANIZATION_ROLE ( 'design_supplier' ) ;
#157 = AXIS2_PLACEMENT_3D ( 'NONE', #218, #126, #203 ) ;
#158 = PRODUCT_DEFINITION_FORMATION_WITH_SPECIFIED_SOURCE ( 'ANY', '', #93, .NOT_KNOWN. ) ;
#159 = PERSON_AND_ORGANIZATION ( #1, #124 ) ;
#160 = PERSON_AND_ORGANIZATION ( #1, #124 ) ;
#161 = DIRECTION ( 'NONE',  ( -3.491481338843133355E-15, 1.224646799147353207E-16, -1.000000000000000000 ) ) ;
#162 = APPLICATION_CONTEXT ( 'configuration controlled 3d designs of mechanical parts and assemblies' ) ;
#163 = EDGE_LOOP ( 'NONE', ( #5 ) ) ;
#164 = EDGE_CURVE ( 'NONE', #153, #153, #145, .T. ) ;
#165 = FACE_OUTER_BOUND ( 'NONE', #177, .T. ) ;
#166 = SECURITY_CLASSIFICATION ( '', '', #32 ) ;
#167 = DIRECTION ( 'NONE',  ( 4.275831445896958607E-31, 1.000000000000000000, 1.224646799147352961E-16 ) ) ;
#168 = CYLINDRICAL_SURFACE ( 'NONE', #66, 6.500000000000000000 ) ;
#169 = FACE_OUTER_BOUND ( 'NONE', #183, .T. ) ;
#170 = CARTESIAN_POINT ( 'NONE',  ( 2.793185071074496035E-15, -9.797174393178789173E-17, 0.7999999999999970468 ) ) ;
#171 = CARTESIAN_POINT ( 'NONE',  ( 1.047444401652912495E-16, 15.00000000000000000, 0.02999999999999921133 ) ) ;
#172 = CARTESIAN_POINT ( 'NONE',  ( 2.688440630909207398E-15, 15.00000000000000000, 0.7699999999999984635 ) ) ;
#173 = PERSON_AND_ORGANIZATION_ROLE ( 'creator' ) ;
#174 = CARTESIAN_POINT ( 'NONE',  ( 0.0000000000000000000, 0.0000000000000000000, 0.0000000000000000000 ) ) ;
#175 = PERSON_AND_ORGANIZATION ( #1, #124 ) ;
#176 = CC_DESIGN_DATE_AND_TIME_ASSIGNMENT ( #118, #77, ( #75 ) ) ;
#177 = EDGE_LOOP ( 'NONE', ( #248 ) ) ;
#178 = CIRCLE ( 'NONE', #235, 15.00000000000000000 ) ;
#179 = PERSON_AND_ORGANIZATION_ROLE ( 'classification_officer' ) ;
#180 = ORIENTED_EDGE ( 'NONE', *, *, #10, .F. ) ;
#181 = APPROVAL_DATE_TIME ( #98, #20 ) ;
#182 = EDGE_LOOP ( 'NONE', ( #36 ) ) ;
#183 = EDGE_LOOP ( 'NONE', ( #139 ) ) ;
#184 = AXIS2_PLACEMENT_3D ( 'NONE', #8, #92, #87 ) ;
#185 = APPROVAL_PERSON_ORGANIZATION ( #175, #20, #102 ) ;
#186 = DIRECTION ( 'NONE',  ( 4.314083075427408311E-31, 1.000000000000000000, 1.214306433183764966E-16 ) ) ;
#187 = FACE_OUTER_BOUND ( 'NONE', #63, .T. ) ;
#188 = DIRECTION ( 'NONE',  ( -3.491481338843133355E-15, 1.224646799147353207E-16, -1.000000000000000000 ) ) ;
#189 = AXIS2_PLACEMENT_3D ( 'NONE', #113, #209, #132 ) ;
#190 = VERTEX_POINT ( 'NONE', #171 ) ;
#191 = DIRECTION ( 'NONE',  ( -4.275831445896958607E-31, -1.000000000000000000, -1.224646799147353207E-16 ) ) ;
#192 = PERSON_AND_ORGANIZATION ( #1, #124 ) ;
#193 = AXIS2_PLACEMENT_3D ( 'NONE', #83, #45, #40 ) ;
#194 = DATE_AND_TIME ( #247, #233 ) ;
#195 = ADVANCED_FACE ( 'NONE', ( #187, #47 ), #168, .F. ) ;
#196 = DATE_AND_TIME ( #134, #41 ) ;
#197 = PERSON_AND_ORGANIZATION ( #1, #124 ) ;
#198 = PRODUCT_RELATED_PRODUCT_CATEGORY ( 'detail', '', ( #93 ) ) ;
#199 = AXIS2_PLACEMENT_3D ( 'NONE', #202, #21, #148 ) ;
#200 = CC_DESIGN_APPROVAL ( #20, ( #75 ) ) ;
#201 = ORIENTED_EDGE ( 'NONE', *, *, #216, .T. ) ;
#202 = CARTESIAN_POINT ( 'NONE',  ( -1.068957861474239634E-29, 3.749399456654644239E-31, -3.061616997868383043E-15 ) ) ;
#203 = DIRECTION ( 'NONE',  ( 4.275831445896958607E-31, 1.000000000000000000, 1.224646799147352961E-16 ) ) ;
#204 = CIRCLE ( 'NONE', #193, 6.500000000000000000 ) ;
#205 = EDGE_LOOP ( 'NONE', ( #97 ) ) ;
#206 = DIRECTION ( 'NONE',  ( 4.275831445896958607E-31, 1.000000000000000000, 1.224646799147352961E-16 ) ) ;
#207 = CARTESIAN_POINT ( 'NONE',  ( 0.0000000000000000000, 25.00000000000000000, 0.0000000000000000000 ) ) ;
#208 = FACE_OUTER_BOUND ( 'NONE', #61, .T. ) ;
#209 = DIRECTION ( 'NONE',  ( -3.491481338843133355E-15, 1.224646799147353207E-16, -1.000000000000000000 ) ) ;
#210 = COORDINATED_UNIVERSAL_TIME_OFFSET ( 1, 0, .AHEAD. ) ;
#211 = APPROVAL_DATE_TIME ( #196, #42 ) ;
#212 = DATE_AND_TIME ( #230, #141 ) ;
#213 = EDGE_LOOP ( 'NONE', ( #120 ) ) ;
#214 = CYLINDRICAL_SURFACE ( 'NONE', #240, 15.00000000000000000 ) ;
#215 = CONICAL_SURFACE ( 'NONE', #155, 25.00000000000000000, 1.567796335794847895 ) ;
#216 = EDGE_CURVE ( 'NONE', #14, #14, #178, .T. ) ;
#217 = FACE_BOUND ( 'NONE', #182, .T. ) ;
#218 = CARTESIAN_POINT ( 'NONE',  ( 0.0000000000000000000, 0.0000000000000000000, 0.0000000000000000000 ) ) ;
#219 = ORIENTED_EDGE ( 'NONE', *, *, #38, .F. ) ;
#220 = CIRCLE ( 'NONE', #116, 15.00000000000000000 ) ;
#221 = CARTESIAN_POINT ( 'NONE',  ( 2.793185071074496035E-15, -9.797174393178789173E-17, 0.7999999999999970468 ) ) ;
#222 = DESIGN_CONTEXT ( 'detailed design', #53, 'design' ) ;
#223 = DIRECTION ( 'NONE',  ( 3.491481338843133355E-15, -1.224646799147353207E-16, 1.000000000000000000 ) ) ;
#224 = VERTEX_POINT ( 'NONE', #73 ) ;
#225 = CARTESIAN_POINT ( 'NONE',  ( 2.793185071074507079E-15, 25.00000000000000000, 0.8000000000000000444 ) ) ;
#226 =( LENGTH_UNIT ( ) NAMED_UNIT ( * ) SI_UNIT ( .MILLI., .METRE. ) );
#227 = DIRECTION ( 'NONE',  ( 1.000000000000000000, 0.0000000000000000000, 0.0000000000000000000 ) ) ;
#228 = APPLICATION_PROTOCOL_DEFINITION ( 'international standard', 'config_control_design', 1994, #162 ) ;
#229 = APPROVAL_ROLE ( '' ) ;
#230 = CALENDAR_DATE ( 2021, 7, 12 ) ;
#231 = EDGE_LOOP ( 'NONE', ( #201 ) ) ;
#232 = MECHANICAL_CONTEXT ( 'NONE', #162, 'mechanical' ) ;
#233 = LOCAL_TIME ( 10, 46, 40.00000000000000000, #117 ) ;
#234 = DIRECTION ( 'NONE',  ( -3.491481338843133355E-15, 1.224646799147353207E-16, -1.000000000000000000 ) ) ;
#235 = AXIS2_PLACEMENT_3D ( 'NONE', #7, #131, #206 ) ;
#236 = EDGE_LOOP ( 'NONE', ( #245 ) ) ;
#237 = ADVANCED_FACE ( 'NONE', ( #74, #25 ), #215, .F. ) ;
#238 = ORIENTED_EDGE ( 'NONE', *, *, #38, .T. ) ;
#239 = CARTESIAN_POINT ( 'NONE',  ( 2.793185071074499190E-15, 6.500000000000000000, 0.7999999999999978240 ) ) ;
#240 = AXIS2_PLACEMENT_3D ( 'NONE', #17, #161, #167 ) ;
#241 = VERTEX_POINT ( 'NONE', #152 ) ;
#242 = DIRECTION ( 'NONE',  ( 4.275831445896958607E-31, 1.000000000000000000, 1.224646799147353207E-16 ) ) ;
#243 = VERTEX_POINT ( 'NONE', #172 ) ;
#244 = CARTESIAN_POINT ( 'NONE',  ( -2.649830156936425943E-30, 15.00000000000000000, -7.589415207398531038E-16 ) ) ;
#245 = ORIENTED_EDGE ( 'NONE', *, *, #164, .F. ) ;
#246 = APPROVAL_PERSON_ORGANIZATION ( #138, #42, #94 ) ;
#247 = CALENDAR_DATE ( 2021, 7, 12 ) ;
#248 = ORIENTED_EDGE ( 'NONE', *, *, #216, .F. ) ;
#249 = COORDINATED_UNIVERSAL_TIME_OFFSET ( 1, 0, .AHEAD. ) ;
ENDSEC;
END-ISO-10303-21;
