ISO-10303-21;
HEADER;
FILE_DESCRIPTION (( 'STEP AP203' ),
    '1' );
FILE_NAME ('954292.step',
    '2021-11-25T13:42:35',
    ( '' ),
    ( '' ),
    'SwSTEP 2.0',
    'SolidWorks 2019',
    '' );
FILE_SCHEMA (( 'CONFIG_CONTROL_DESIGN' ));
ENDSEC;

DATA;
#1 = EDGE_CURVE ( 'NONE', #122, #122, #183, .T. ) ;
#2 = COORDINATED_UNIVERSAL_TIME_OFFSET ( 1, 0, .AHEAD. ) ;
#3 = AXIS2_PLACEMENT_3D ( 'NONE', #178, #21, #56 ) ;
#4 = EDGE_LOOP ( 'NONE', ( #111 ) ) ;
#5 = AXIS2_PLACEMENT_3D ( 'NONE', #180, #27, #147 ) ;
#6 = AXIS2_PLACEMENT_3D ( 'NONE', #23, #138, #101 ) ;
#7 = ORIENTED_EDGE ( 'NONE', *, *, #98, .T. ) ;
#8 = ADVANCED_FACE ( 'NONE', ( #161, #132 ), #100, .T. ) ;
#9 = CARTESIAN_POINT ( 'NONE',  ( 8.466392301576972671E-15, -7.010801460773508078E-16, 2.424871130596454982 ) ) ;
#10 = CALENDAR_DATE ( 2021, 25, 11 ) ;
#11 = CARTESIAN_POINT ( 'NONE',  ( 8.466392301576974248E-15, 1.499999999999995559, 2.424871130596455426 ) ) ;
#12 = APPROVAL_DATE_TIME ( #142, #43 ) ;
#13 = CARTESIAN_POINT ( 'NONE',  ( 1.326762908760390423E-13, -4.653657836759941941E-15, 38.00000000000000000 ) ) ;
#14 = DATE_AND_TIME ( #137, #134 ) ;
#15 = PERSON_AND_ORGANIZATION_ROLE ( 'design_owner' ) ;
#16 = SECURITY_CLASSIFICATION ( '', '', #92 ) ;
#17 = CALENDAR_DATE ( 2021, 25, 11 ) ;
#18 = ORIENTED_EDGE ( 'NONE', *, *, #91, .F. ) ;
#19 = CC_DESIGN_APPROVAL ( #29, ( #165 ) ) ;
#20 = AXIS2_PLACEMENT_3D ( 'NONE', #195, #52, #162 ) ;
#21 = DIRECTION ( 'NONE',  ( 3.491481338843133355E-15, -1.224646799147353207E-16, 1.000000000000000000 ) ) ;
#22 = FACE_OUTER_BOUND ( 'NONE', #96, .T. ) ;
#23 = CARTESIAN_POINT ( 'NONE',  ( 8.466392301576972671E-15, -7.010801460773508078E-16, 2.424871130596454982 ) ) ;
#24 = PERSON_AND_ORGANIZATION ( #153, #78 ) ;
#25 = CARTESIAN_POINT ( 'NONE',  ( 1.316288464743861212E-13, -4.616918432785521081E-15, 37.69999999999999574 ) ) ;
#26 = PRODUCT ( '954292', '954292', '', ( #152 ) ) ;
#27 = DIRECTION ( 'NONE',  ( -3.491481338843133355E-15, 1.224646799147353207E-16, -1.000000000000000000 ) ) ;
#28 = APPROVAL_DATE_TIME ( #14, #125 ) ;
#29 = APPROVAL ( #156, 'UNSPECIFIED' ) ;
#30 = DATE_TIME_ROLE ( 'creation_date' ) ;
#31 = DIRECTION ( 'NONE',  ( 1.000000000000000000, 0.0000000000000000000, 0.0000000000000000000 ) ) ;
#32 = AXIS2_PLACEMENT_3D ( 'NONE', #192, #90, #31 ) ;
#33 = AXIS2_PLACEMENT_3D ( 'NONE', #199, #70, #69 ) ;
#34 = APPLICATION_CONTEXT ( 'configuration controlled 3d designs of mechanical parts and assemblies' ) ;
#35 = PERSON_AND_ORGANIZATION ( #153, #78 ) ;
#36 = ADVANCED_BREP_SHAPE_REPRESENTATION ( '954292', ( #128, #121, #32 ), #79 ) ;
#37 = ORIENTED_EDGE ( 'NONE', *, *, #190, .F. ) ;
#38 = CC_DESIGN_PERSON_AND_ORGANIZATION_ASSIGNMENT ( #46, #187, ( #165 ) ) ;
#39 = AXIS2_PLACEMENT_3D ( 'NONE', #9, #82, #202 ) ;
#40 = VERTEX_POINT ( 'NONE', #198 ) ;
#41 = DIRECTION ( 'NONE',  ( -3.491481338843133355E-15, 1.224646799147353207E-16, -1.000000000000000000 ) ) ;
#42 = APPROVAL_PERSON_ORGANIZATION ( #24, #125, #169 ) ;
#43 = APPROVAL ( #85, 'UNSPECIFIED' ) ;
#44 = DIRECTION ( 'NONE',  ( -4.275831445896958607E-31, -1.000000000000000000, -1.224646799147353207E-16 ) ) ;
#45 = APPROVAL_DATE_TIME ( #151, #29 ) ;
#46 = PERSON_AND_ORGANIZATION ( #153, #78 ) ;
#47 = SHAPE_DEFINITION_REPRESENTATION ( #61, #36 ) ;
#48 = APPLICATION_PROTOCOL_DEFINITION ( 'international standard', 'config_control_design', 1994, #194 ) ;
#49 = ADVANCED_FACE ( 'NONE', ( #86 ), #104, .T. ) ;
#50 = CC_DESIGN_APPROVAL ( #43, ( #65 ) ) ;
#51 = PERSON_AND_ORGANIZATION ( #153, #78 ) ;
#52 = DIRECTION ( 'NONE',  ( -3.491481338843133355E-15, 1.224646799147353207E-16, -1.000000000000000000 ) ) ;
#53 = LOCAL_TIME ( 14, 42, 35.00000000000000000, #185 ) ;
#54 = FACE_OUTER_BOUND ( 'NONE', #80, .T. ) ;
#55 = ORIENTED_EDGE ( 'NONE', *, *, #107, .F. ) ;
#56 = DIRECTION ( 'NONE',  ( 0.0000000000000000000, -1.000000000000000000, 0.0000000000000000000 ) ) ;
#57 = FACE_BOUND ( 'NONE', #160, .T. ) ;
#58 = CONICAL_SURFACE ( 'NONE', #179, 1.199999999999998623, 0.7853981633974453924 ) ;
#59 = FACE_OUTER_BOUND ( 'NONE', #115, .T. ) ;
#60 = PLANE ( 'NONE',  #201 ) ;
#61 = PRODUCT_DEFINITION_SHAPE ( 'NONE', 'NONE',  #65 ) ;
#62 = ORIENTED_EDGE ( 'NONE', *, *, #98, .F. ) ;
#63 = ORIENTED_EDGE ( 'NONE', *, *, #107, .T. ) ;
#64 = CIRCLE ( 'NONE', #110, 1.199999999999998623 ) ;
#65 = PRODUCT_DEFINITION ( 'UNKNOWN', '', #165, #129 ) ;
#66 = ORIENTED_EDGE ( 'NONE', *, *, #1, .F. ) ;
#67 = CLOSED_SHELL ( 'NONE', ( #193, #8, #49 ) ) ;
#68 = DIRECTION ( 'NONE',  ( 3.491481338843133355E-15, -1.224646799147353207E-16, 1.000000000000000000 ) ) ;
#69 = DIRECTION ( 'NONE',  ( 0.0000000000000000000, 1.000000000000000000, 0.0000000000000000000 ) ) ;
#70 = DIRECTION ( 'NONE',  ( -3.491481338843133355E-15, 1.224646799147353207E-16, -1.000000000000000000 ) ) ;
#71 = VERTEX_POINT ( 'NONE', #164 ) ;
#72 = DATE_TIME_ROLE ( 'classification_date' ) ;
#73 = DIRECTION ( 'NONE',  ( 0.0000000000000000000, 1.000000000000000000, 0.0000000000000000000 ) ) ;
#74 = APPLICATION_PROTOCOL_DEFINITION ( 'international standard', 'config_control_design', 1994, #34 ) ;
#75 = APPROVAL_PERSON_ORGANIZATION ( #106, #29, #127 ) ;
#76 = DATE_AND_TIME ( #17, #131 ) ;
#77 = ADVANCED_FACE ( 'NONE', ( #84 ), #170, .F. ) ;
#78 = ORGANIZATION ( 'UNSPECIFIED', 'UNSPECIFIED', '' ) ;
#79 =( GEOMETRIC_REPRESENTATION_CONTEXT ( 3 ) GLOBAL_UNCERTAINTY_ASSIGNED_CONTEXT ( ( #158 ) ) GLOBAL_UNIT_ASSIGNED_CONTEXT ( ( #120, #186, #191 ) ) REPRESENTATION_CONTEXT ( 'NONE', 'WORKASPACE' ) );
#80 = EDGE_LOOP ( 'NONE', ( #155 ) ) ;
#81 = CC_DESIGN_PERSON_AND_ORGANIZATION_ASSIGNMENT ( #89, #143, ( #165 ) ) ;
#82 = DIRECTION ( 'NONE',  ( 3.491481338843133355E-15, -1.224646799147353207E-16, 1.000000000000000000 ) ) ;
#83 = DIRECTION ( 'NONE',  ( -3.491481338843133355E-15, 1.224646799147353207E-16, -1.000000000000000000 ) ) ;
#84 = FACE_OUTER_BOUND ( 'NONE', #93, .T. ) ;
#85 = APPROVAL_STATUS ( 'not_yet_approved' ) ;
#86 = FACE_OUTER_BOUND ( 'NONE', #141, .T. ) ;
#87 = FACE_OUTER_BOUND ( 'NONE', #4, .T. ) ;
#88 = DATE_AND_TIME ( #189, #53 ) ;
#89 = PERSON_AND_ORGANIZATION ( #153, #78 ) ;
#90 = DIRECTION ( 'NONE',  ( 0.0000000000000000000, 0.0000000000000000000, 1.000000000000000000 ) ) ;
#91 = EDGE_CURVE ( 'NONE', #40, #40, #117, .T. ) ;
#92 = SECURITY_CLASSIFICATION_LEVEL ( 'unclassified' ) ;
#93 = EDGE_LOOP ( 'NONE', ( #7 ) ) ;
#94 = CLOSED_SHELL ( 'NONE', ( #77, #166, #139, #196 ) ) ;
#95 = CC_DESIGN_APPROVAL ( #125, ( #16 ) ) ;
#96 = EDGE_LOOP ( 'NONE', ( #55 ) ) ;
#97 = VERTEX_POINT ( 'NONE', #197 ) ;
#98 = EDGE_CURVE ( 'NONE', #71, #71, #200, .T. ) ;
#99 = CARTESIAN_POINT ( 'NONE',  ( -9.549558314590121315E-33, 3.349534162800008034E-34, -2.735102206719589640E-18 ) ) ;
#100 = CONICAL_SURFACE ( 'NONE', #3, 1.499999999999995781, 0.5235987755982924874 ) ;
#101 = DIRECTION ( 'NONE',  ( -4.275831445896958607E-31, -1.000000000000000000, -1.224646799147353207E-16 ) ) ;
#102 = PLANE ( 'NONE',  #112 ) ;
#103 = COORDINATED_UNIVERSAL_TIME_OFFSET ( 1, 0, .AHEAD. ) ;
#104 = PLANE ( 'NONE',  #39 ) ;
#105 = EDGE_LOOP ( 'NONE', ( #18 ) ) ;
#106 = PERSON_AND_ORGANIZATION ( #153, #78 ) ;
#107 = EDGE_CURVE ( 'NONE', #97, #97, #64, .T. ) ;
#108 = PERSON_AND_ORGANIZATION_ROLE ( 'creator' ) ;
#109 = LOCAL_TIME ( 14, 42, 35.00000000000000000, #103 ) ;
#110 = AXIS2_PLACEMENT_3D ( 'NONE', #13, #83, #73 ) ;
#111 = ORIENTED_EDGE ( 'NONE', *, *, #91, .T. ) ;
#112 = AXIS2_PLACEMENT_3D ( 'NONE', #168, #146, #148 ) ;
#113 = PRODUCT_RELATED_PRODUCT_CATEGORY ( 'detail', '', ( #26 ) ) ;
#114 = CYLINDRICAL_SURFACE ( 'NONE', #176, 1.499999999999996891 ) ;
#115 = EDGE_LOOP ( 'NONE', ( #62 ) ) ;
#116 = DIRECTION ( 'NONE',  ( 4.275831445896958607E-31, 1.000000000000000000, 1.224646799147353454E-16 ) ) ;
#117 = CIRCLE ( 'NONE', #5, 0.1000000000000004080 ) ;
#118 = DIRECTION ( 'NONE',  ( 0.0000000000000000000, 1.000000000000000000, 0.0000000000000000000 ) ) ;
#119 = COORDINATED_UNIVERSAL_TIME_OFFSET ( 1, 0, .AHEAD. ) ;
#120 =( LENGTH_UNIT ( ) NAMED_UNIT ( * ) SI_UNIT ( .MILLI., .METRE. ) );
#121 = MANIFOLD_SOLID_BREP ( 'Corps-Déplacer/Copier1[2]', #67 ) ;
#122 = VERTEX_POINT ( 'NONE', #11 ) ;
#123 = EDGE_LOOP ( 'NONE', ( #177 ) ) ;
#124 = PERSON_AND_ORGANIZATION ( #153, #78 ) ;
#125 = APPROVAL ( #173, 'UNSPECIFIED' ) ;
#126 = APPROVAL_ROLE ( '' ) ;
#127 = APPROVAL_ROLE ( '' ) ;
#128 = MANIFOLD_SOLID_BREP ( 'Corps-Déplacer/Copier1[1]', #94 ) ;
#129 = DESIGN_CONTEXT ( 'detailed design', #34, 'design' ) ;
#130 = CC_DESIGN_PERSON_AND_ORGANIZATION_ASSIGNMENT ( #140, #154, ( #16 ) ) ;
#131 = LOCAL_TIME ( 14, 42, 35.00000000000000000, #188 ) ;
#132 = FACE_OUTER_BOUND ( 'NONE', #123, .T. ) ;
#133 = DIRECTION ( 'NONE',  ( -3.491481338843133355E-15, 1.224646799147353207E-16, -1.000000000000000000 ) ) ;
#134 = LOCAL_TIME ( 14, 42, 35.00000000000000000, #2 ) ;
#135 = LOCAL_TIME ( 14, 42, 35.00000000000000000, #119 ) ;
#136 = VERTEX_POINT ( 'NONE', #145 ) ;
#137 = CALENDAR_DATE ( 2021, 25, 11 ) ;
#138 = DIRECTION ( 'NONE',  ( 3.491481338843133355E-15, -1.224646799147353207E-16, 1.000000000000000000 ) ) ;
#139 = ADVANCED_FACE ( 'NONE', ( #163, #57 ), #58, .T. ) ;
#140 = PERSON_AND_ORGANIZATION ( #153, #78 ) ;
#141 = EDGE_LOOP ( 'NONE', ( #66 ) ) ;
#142 = DATE_AND_TIME ( #10, #135 ) ;
#143 = PERSON_AND_ORGANIZATION_ROLE ( 'creator' ) ;
#144 = APPROVAL_PERSON_ORGANIZATION ( #51, #43, #126 ) ;
#145 = CARTESIAN_POINT ( 'NONE',  ( 1.316288464743861212E-13, 1.499999999999994005, 37.69999999999999574 ) ) ;
#146 = DIRECTION ( 'NONE',  ( -3.491481338843133355E-15, 1.224646799147353207E-16, -1.000000000000000000 ) ) ;
#147 = DIRECTION ( 'NONE',  ( 4.275831445896958607E-31, 1.000000000000000000, 1.224646799147353207E-16 ) ) ;
#148 = DIRECTION ( 'NONE',  ( 4.275831445896958607E-31, 1.000000000000000000, 1.224646799147353207E-16 ) ) ;
#149 = CARTESIAN_POINT ( 'NONE',  ( 1.326762908760390423E-13, -4.653657836759941941E-15, 38.00000000000000000 ) ) ;
#150 = CC_DESIGN_PERSON_AND_ORGANIZATION_ASSIGNMENT ( #124, #108, ( #65 ) ) ;
#151 = DATE_AND_TIME ( #174, #109 ) ;
#152 = MECHANICAL_CONTEXT ( 'NONE', #194, 'mechanical' ) ;
#153 = PERSON ( 'UNSPECIFIED', 'UNSPECIFIED', 'UNSPECIFIED', ('UNSPECIFIED'), ('UNSPECIFIED'), ('UNSPECIFIED') ) ;
#154 = PERSON_AND_ORGANIZATION_ROLE ( 'classification_officer' ) ;
#155 = ORIENTED_EDGE ( 'NONE', *, *, #190, .T. ) ;
#156 = APPROVAL_STATUS ( 'not_yet_approved' ) ;
#157 = CC_DESIGN_PERSON_AND_ORGANIZATION_ASSIGNMENT ( #35, #15, ( #26 ) ) ;
#158 = UNCERTAINTY_MEASURE_WITH_UNIT (LENGTH_MEASURE( 1.000000000000000082E-05 ), #120, 'distance_accuracy_value', 'NONE');
#159 = CC_DESIGN_DATE_AND_TIME_ASSIGNMENT ( #76, #72, ( #16 ) ) ;
#160 = EDGE_LOOP ( 'NONE', ( #63 ) ) ;
#161 = FACE_BOUND ( 'NONE', #105, .T. ) ;
#162 = DIRECTION ( 'NONE',  ( 0.0000000000000000000, 1.000000000000000000, 0.0000000000000000000 ) ) ;
#163 = FACE_OUTER_BOUND ( 'NONE', #181, .T. ) ;
#164 = CARTESIAN_POINT ( 'NONE',  ( 8.466392301576974248E-15, 1.499999999999995559, 2.424871130596455426 ) ) ;
#165 = PRODUCT_DEFINITION_FORMATION_WITH_SPECIFIED_SOURCE ( 'ANY', '', #26, .NOT_KNOWN. ) ;
#166 = ADVANCED_FACE ( 'NONE', ( #59, #54 ), #114, .T. ) ;
#167 = CARTESIAN_POINT ( 'NONE',  ( 0.0000000000000000000, 0.0000000000000000000, 0.0000000000000000000 ) ) ;
#168 = CARTESIAN_POINT ( 'NONE',  ( 1.326762908760390423E-13, 8.998558695971067645E-33, 38.00000000000000000 ) ) ;
#169 = APPROVAL_ROLE ( '' ) ;
#170 = PLANE ( 'NONE',  #6 ) ;
#171 = CIRCLE ( 'NONE', #182, 1.499999999999998446 ) ;
#172 = CC_DESIGN_SECURITY_CLASSIFICATION ( #16, ( #165 ) ) ;
#173 = APPROVAL_STATUS ( 'not_yet_approved' ) ;
#174 = CALENDAR_DATE ( 2021, 25, 11 ) ;
#175 = CC_DESIGN_DATE_AND_TIME_ASSIGNMENT ( #88, #30, ( #65 ) ) ;
#176 = AXIS2_PLACEMENT_3D ( 'NONE', #167, #133, #116 ) ;
#177 = ORIENTED_EDGE ( 'NONE', *, *, #1, .T. ) ;
#178 = CARTESIAN_POINT ( 'NONE',  ( 8.466392301576974248E-15, -2.969610668429772296E-16, 2.424871130596455426 ) ) ;
#179 = AXIS2_PLACEMENT_3D ( 'NONE', #149, #41, #118 ) ;
#180 = CARTESIAN_POINT ( 'NONE',  ( -1.909911662918024263E-32, 6.699068325600016069E-34, -5.470204413439179279E-18 ) ) ;
#181 = EDGE_LOOP ( 'NONE', ( #37 ) ) ;
#182 = AXIS2_PLACEMENT_3D ( 'NONE', #25, #184, #203 ) ;
#183 = CIRCLE ( 'NONE', #20, 1.499999999999995781 ) ;
#184 = DIRECTION ( 'NONE',  ( -3.491481338843133355E-15, 1.224646799147353207E-16, -1.000000000000000000 ) ) ;
#185 = COORDINATED_UNIVERSAL_TIME_OFFSET ( 1, 0, .AHEAD. ) ;
#186 =( NAMED_UNIT ( * ) PLANE_ANGLE_UNIT ( ) SI_UNIT ( $, .RADIAN. ) );
#187 = PERSON_AND_ORGANIZATION_ROLE ( 'design_supplier' ) ;
#188 = COORDINATED_UNIVERSAL_TIME_OFFSET ( 1, 0, .AHEAD. ) ;
#189 = CALENDAR_DATE ( 2021, 25, 11 ) ;
#190 = EDGE_CURVE ( 'NONE', #136, #136, #171, .T. ) ;
#191 =( NAMED_UNIT ( * ) SI_UNIT ( $, .STERADIAN. ) SOLID_ANGLE_UNIT ( ) );
#192 = CARTESIAN_POINT ( 'NONE',  ( 0.0000000000000000000, 0.0000000000000000000, 0.0000000000000000000 ) ) ;
#193 = ADVANCED_FACE ( 'NONE', ( #87 ), #60, .F. ) ;
#194 = APPLICATION_CONTEXT ( 'configuration controlled 3d designs of mechanical parts and assemblies' ) ;
#195 = CARTESIAN_POINT ( 'NONE',  ( 8.466392301576974248E-15, -2.969610668429772296E-16, 2.424871130596455426 ) ) ;
#196 = ADVANCED_FACE ( 'NONE', ( #22 ), #102, .F. ) ;
#197 = CARTESIAN_POINT ( 'NONE',  ( 1.326762908760390423E-13, 1.199999999999993960, 38.00000000000000000 ) ) ;
#198 = CARTESIAN_POINT ( 'NONE',  ( 2.365919782978951969E-32, 0.1000000000000004080, 6.776263578034402713E-18 ) ) ;
#199 = CARTESIAN_POINT ( 'NONE',  ( 8.466392301576974248E-15, -2.969610668429772296E-16, 2.424871130596455426 ) ) ;
#200 = CIRCLE ( 'NONE', #33, 1.499999999999995781 ) ;
#201 = AXIS2_PLACEMENT_3D ( 'NONE', #99, #68, #44 ) ;
#202 = DIRECTION ( 'NONE',  ( -4.275831445896958607E-31, -1.000000000000000000, -1.224646799147353207E-16 ) ) ;
#203 = DIRECTION ( 'NONE',  ( 0.0000000000000000000, 1.000000000000000000, 0.0000000000000000000 ) ) ;
ENDSEC;
END-ISO-10303-21;
