ISO-10303-21;
HEADER;
FILE_DESCRIPTION (( 'STEP AP203' ),
    '1' );
FILE_NAME ('954146.step',
    '2021-10-15T13:35:00',
    ( '' ),
    ( '' ),
    'SwSTEP 2.0',
    'SolidWorks 2019',
    '' );
FILE_SCHEMA (( 'CONFIG_CONTROL_DESIGN' ));
ENDSEC;

DATA;
#1 = FACE_OUTER_BOUND ( 'NONE', #200, .T. ) ;
#2 = DIRECTION ( 'NONE',  ( 4.275831445896957731E-31, 1.000000000000000000, 1.224646799147352961E-16 ) ) ;
#3 = DIRECTION ( 'NONE',  ( 0.0000000000000000000, 1.000000000000000000, 0.0000000000000000000 ) ) ;
#4 = FACE_OUTER_BOUND ( 'NONE', #136, .T. ) ;
#5 = MANIFOLD_SOLID_BREP ( 'Corps-Déplacer/Copier1[2]', #179 ) ;
#6 = DIRECTION ( 'NONE',  ( 0.0000000000000000000, 1.000000000000000000, 0.0000000000000000000 ) ) ;
#7 = DIRECTION ( 'NONE',  ( 1.000000000000000000, 0.0000000000000000000, 0.0000000000000000000 ) ) ;
#8 = PERSON_AND_ORGANIZATION ( #85, #100 ) ;
#9 = PERSON_AND_ORGANIZATION_ROLE ( 'design_owner' ) ;
#10 = PRODUCT_DEFINITION_SHAPE ( 'NONE', 'NONE',  #119 ) ;
#11 = CALENDAR_DATE ( 2021, 15, 10 ) ;
#12 = DIRECTION ( 'NONE',  ( -3.491481338843133355E-15, 1.224646799147353207E-16, -1.000000000000000000 ) ) ;
#13 = APPROVAL ( #43, 'UNSPECIFIED' ) ;
#14 = ORIENTED_EDGE ( 'NONE', *, *, #124, .T. ) ;
#15 = AXIS2_PLACEMENT_3D ( 'NONE', #48, #139, #47 ) ;
#16 = CARTESIAN_POINT ( 'NONE',  ( 4.189777606611760026E-14, 7.648774891575428367E-33, 12.00000000000000000 ) ) ;
#17 = DIRECTION ( 'NONE',  ( 3.776333224288714331E-31, 1.000000000000000000, 1.062943306358342347E-16 ) ) ;
#18 = CC_DESIGN_DATE_AND_TIME_ASSIGNMENT ( #191, #116, ( #119 ) ) ;
#19 = PLANE ( 'NONE',  #174 ) ;
#20 = CC_DESIGN_APPROVAL ( #130, ( #66 ) ) ;
#21 = VERTEX_POINT ( 'NONE', #51 ) ;
#22 = CARTESIAN_POINT ( 'NONE',  ( 4.189777606611760026E-14, 1.019999999999995577, 12.00000000000000000 ) ) ;
#23 = AXIS2_PLACEMENT_3D ( 'NONE', #140, #154, #3 ) ;
#24 =( LENGTH_UNIT ( ) NAMED_UNIT ( * ) SI_UNIT ( .MILLI., .METRE. ) );
#25 = CALENDAR_DATE ( 2021, 15, 10 ) ;
#26 = AXIS2_PLACEMENT_3D ( 'NONE', #68, #186, #2 ) ;
#27 = CALENDAR_DATE ( 2021, 15, 10 ) ;
#28 = APPROVAL_ROLE ( '' ) ;
#29 = ADVANCED_FACE ( 'NONE', ( #166, #32 ), #92, .T. ) ;
#30 = EDGE_LOOP ( 'NONE', ( #14 ) ) ;
#31 = LOCAL_TIME ( 15, 35, 0.0000000000000000000, #115 ) ;
#32 = FACE_OUTER_BOUND ( 'NONE', #165, .T. ) ;
#33 = CC_DESIGN_PERSON_AND_ORGANIZATION_ASSIGNMENT ( #73, #194, ( #129 ) ) ;
#34 = PRODUCT ( '954146', '954146', '', ( #131 ) ) ;
#35 = ORIENTED_EDGE ( 'NONE', *, *, #54, .F. ) ;
#36 = DIRECTION ( 'NONE',  ( -3.491481338843133355E-15, 1.224646799147353207E-16, -1.000000000000000000 ) ) ;
#37 = FACE_OUTER_BOUND ( 'NONE', #151, .T. ) ;
#38 = VERTEX_POINT ( 'NONE', #172 ) ;
#39 = DIRECTION ( 'NONE',  ( 0.0000000000000000000, 1.000000000000000000, 0.0000000000000000000 ) ) ;
#40 = DIRECTION ( 'NONE',  ( -3.491481338843133355E-15, 1.224646799147353207E-16, -1.000000000000000000 ) ) ;
#41 = PERSON_AND_ORGANIZATION ( #85, #100 ) ;
#42 = LOCAL_TIME ( 15, 35, 0.0000000000000000000, #143 ) ;
#43 = APPROVAL_STATUS ( 'not_yet_approved' ) ;
#44 = SHAPE_DEFINITION_REPRESENTATION ( #10, #160 ) ;
#45 = CARTESIAN_POINT ( 'NONE',  ( 0.0000000000000000000, 0.0000000000000000000, 0.0000000000000000000 ) ) ;
#46 = AXIS2_PLACEMENT_3D ( 'NONE', #45, #84, #7 ) ;
#47 = DIRECTION ( 'NONE',  ( 0.0000000000000000000, 1.000000000000000000, 0.0000000000000000000 ) ) ;
#48 = CARTESIAN_POINT ( 'NONE',  ( 4.189777606611760026E-14, -1.469576158976823947E-15, 12.00000000000000000 ) ) ;
#49 = AXIS2_PLACEMENT_3D ( 'NONE', #189, #157, #81 ) ;
#50 = ADVANCED_FACE ( 'NONE', ( #137 ), #141, .F. ) ;
#51 = CARTESIAN_POINT ( 'NONE',  ( 1.326762908760390423E-13, 0.6699999999999954881, 38.00000000000000000 ) ) ;
#52 = FACE_OUTER_BOUND ( 'NONE', #202, .T. ) ;
#53 = DIRECTION ( 'NONE',  ( -4.275831445896958607E-31, -1.000000000000000000, -1.224646799147353207E-16 ) ) ;
#54 = EDGE_CURVE ( 'NONE', #123, #123, #65, .T. ) ;
#55 = AXIS2_PLACEMENT_3D ( 'NONE', #138, #126, #6 ) ;
#56 = CC_DESIGN_APPROVAL ( #89, ( #119 ) ) ;
#57 = PERSON_AND_ORGANIZATION ( #85, #100 ) ;
#58 = CC_DESIGN_PERSON_AND_ORGANIZATION_ASSIGNMENT ( #146, #72, ( #119 ) ) ;
#59 = DATE_TIME_ROLE ( 'classification_date' ) ;
#60 = LOCAL_TIME ( 15, 35, 0.0000000000000000000, #133 ) ;
#61 = PERSON_AND_ORGANIZATION ( #85, #100 ) ;
#62 = EDGE_LOOP ( 'NONE', ( #153 ) ) ;
#63 = ORIENTED_EDGE ( 'NONE', *, *, #114, .F. ) ;
#64 = FACE_OUTER_BOUND ( 'NONE', #183, .T. ) ;
#65 = CIRCLE ( 'NONE', #15, 1.019999999999997131 ) ;
#66 = PRODUCT_DEFINITION_FORMATION_WITH_SPECIFIED_SOURCE ( 'ANY', '', #34, .NOT_KNOWN. ) ;
#67 = CARTESIAN_POINT ( 'NONE',  ( 1.314542724074439550E-13, 1.019999999999995577, 37.64999999999999858 ) ) ;
#68 = CARTESIAN_POINT ( 'NONE',  ( 0.0000000000000000000, 0.0000000000000000000, 0.0000000000000000000 ) ) ;
#69 = DIRECTION ( 'NONE',  ( -4.275831445896958607E-31, -1.000000000000000000, -1.224646799147353207E-16 ) ) ;
#70 = CC_DESIGN_PERSON_AND_ORGANIZATION_ASSIGNMENT ( #61, #9, ( #34 ) ) ;
#71 = MANIFOLD_SOLID_BREP ( 'Corps-Déplacer/Copier1[1]', #144 ) ;
#72 = PERSON_AND_ORGANIZATION_ROLE ( 'creator' ) ;
#73 = PERSON_AND_ORGANIZATION ( #85, #100 ) ;
#74 = DATE_AND_TIME ( #164, #42 ) ;
#75 = DATE_AND_TIME ( #158, #60 ) ;
#76 = AXIS2_PLACEMENT_3D ( 'NONE', #127, #156, #17 ) ;
#77 = COORDINATED_UNIVERSAL_TIME_OFFSET ( 1, 0, .AHEAD. ) ;
#78 = DIRECTION ( 'NONE',  ( 4.275831445896958607E-31, 1.000000000000000000, 1.224646799147353207E-16 ) ) ;
#79 = AXIS2_PLACEMENT_3D ( 'NONE', #82, #36, #39 ) ;
#80 = DIRECTION ( 'NONE',  ( 4.275831445896958607E-31, 1.000000000000000000, 1.224646799147353207E-16 ) ) ;
#81 = DIRECTION ( 'NONE',  ( -3.776333224288714331E-31, -1.000000000000000000, -1.062943306358342347E-16 ) ) ;
#82 = CARTESIAN_POINT ( 'NONE',  ( 4.189777606611760026E-14, -1.469576158976823947E-15, 12.00000000000000000 ) ) ;
#83 = DIRECTION ( 'NONE',  ( -3.491481338843133355E-15, 1.224646799147353207E-16, -1.000000000000000000 ) ) ;
#84 = DIRECTION ( 'NONE',  ( 0.0000000000000000000, 0.0000000000000000000, 1.000000000000000000 ) ) ;
#85 = PERSON ( 'UNSPECIFIED', 'UNSPECIFIED', 'UNSPECIFIED', ('UNSPECIFIED'), ('UNSPECIFIED'), ('UNSPECIFIED') ) ;
#86 = ADVANCED_FACE ( 'NONE', ( #37, #109 ), #91, .T. ) ;
#87 = SECURITY_CLASSIFICATION_LEVEL ( 'unclassified' ) ;
#88 = PERSON_AND_ORGANIZATION ( #85, #100 ) ;
#89 = APPROVAL ( #178, 'UNSPECIFIED' ) ;
#90 = DATE_AND_TIME ( #25, #159 ) ;
#91 = CONICAL_SURFACE ( 'NONE', #112, 0.6700000000000001510, 0.7853981633974438381 ) ;
#92 = CYLINDRICAL_SURFACE ( 'NONE', #203, 1.019999999999998463 ) ;
#93 = APPLICATION_CONTEXT ( 'configuration controlled 3d designs of mechanical parts and assemblies' ) ;
#94 = ADVANCED_FACE ( 'NONE', ( #4, #52 ), #110, .T. ) ;
#95 = CIRCLE ( 'NONE', #55, 0.6700000000000001510 ) ;
#96 = CARTESIAN_POINT ( 'NONE',  ( 1.326762908760390423E-13, -4.653657836759941941E-15, 38.00000000000000000 ) ) ;
#97 = VERTEX_POINT ( 'NONE', #67 ) ;
#98 = CC_DESIGN_PERSON_AND_ORGANIZATION_ASSIGNMENT ( #104, #173, ( #66 ) ) ;
#99 = PLANE ( 'NONE',  #190 ) ;
#100 = ORGANIZATION ( 'UNSPECIFIED', 'UNSPECIFIED', '' ) ;
#101 = CARTESIAN_POINT ( 'NONE',  ( 1.326762908760390423E-13, 5.024195271917154290E-33, 38.00000000000000000 ) ) ;
#102 = PERSON_AND_ORGANIZATION_ROLE ( 'design_supplier' ) ;
#103 = CC_DESIGN_PERSON_AND_ORGANIZATION_ASSIGNMENT ( #41, #102, ( #66 ) ) ;
#104 = PERSON_AND_ORGANIZATION ( #85, #100 ) ;
#105 = APPROVAL_STATUS ( 'not_yet_approved' ) ;
#106 = EDGE_LOOP ( 'NONE', ( #163 ) ) ;
#107 = EDGE_LOOP ( 'NONE', ( #63 ) ) ;
#108 = CARTESIAN_POINT ( 'NONE',  ( 4.189777606611760026E-14, 7.648774891575428367E-33, 12.00000000000000000 ) ) ;
#109 = FACE_BOUND ( 'NONE', #106, .T. ) ;
#110 = CYLINDRICAL_SURFACE ( 'NONE', #26, 1.019999999999996243 ) ;
#111 = CARTESIAN_POINT ( 'NONE',  ( 4.189777606611760026E-14, 1.019999999999995577, 12.00000000000000000 ) ) ;
#112 = AXIS2_PLACEMENT_3D ( 'NONE', #96, #83, #169 ) ;
#113 = APPROVAL_ROLE ( '' ) ;
#114 = EDGE_CURVE ( 'NONE', #21, #21, #95, .T. ) ;
#115 = COORDINATED_UNIVERSAL_TIME_OFFSET ( 1, 0, .AHEAD. ) ;
#116 = DATE_TIME_ROLE ( 'creation_date' ) ;
#117 = CIRCLE ( 'NONE', #76, 1.019999999999995577 ) ;
#118 = APPROVAL_ROLE ( '' ) ;
#119 = PRODUCT_DEFINITION ( 'UNKNOWN', '', #66, #135 ) ;
#120 = ORIENTED_EDGE ( 'NONE', *, *, #198, .F. ) ;
#121 = LOCAL_TIME ( 15, 35, 0.0000000000000000000, #162 ) ;
#122 = ORIENTED_EDGE ( 'NONE', *, *, #124, .F. ) ;
#123 = VERTEX_POINT ( 'NONE', #111 ) ;
#124 = EDGE_CURVE ( 'NONE', #38, #38, #117, .T. ) ;
#125 = DIRECTION ( 'NONE',  ( 3.491481338843133355E-15, -1.224646799147353207E-16, 1.000000000000000000 ) ) ;
#126 = DIRECTION ( 'NONE',  ( -3.491481338843133355E-15, 1.224646799147353207E-16, -1.000000000000000000 ) ) ;
#127 = CARTESIAN_POINT ( 'NONE',  ( 1.296211186451516882E-15, -4.546496820266014129E-17, 0.3712496389515297368 ) ) ;
#128 = CIRCLE ( 'NONE', #23, 1.020000000000000018 ) ;
#129 = SECURITY_CLASSIFICATION ( '', '', #87 ) ;
#130 = APPROVAL ( #105, 'UNSPECIFIED' ) ;
#131 = MECHANICAL_CONTEXT ( 'NONE', #93, 'mechanical' ) ;
#132 =( NAMED_UNIT ( * ) PLANE_ANGLE_UNIT ( ) SI_UNIT ( $, .RADIAN. ) );
#133 = COORDINATED_UNIVERSAL_TIME_OFFSET ( 1, 0, .AHEAD. ) ;
#134 = APPLICATION_PROTOCOL_DEFINITION ( 'international standard', 'config_control_design', 1994, #93 ) ;
#135 = DESIGN_CONTEXT ( 'detailed design', #148, 'design' ) ;
#136 = EDGE_LOOP ( 'NONE', ( #122 ) ) ;
#137 = FACE_OUTER_BOUND ( 'NONE', #107, .T. ) ;
#138 = CARTESIAN_POINT ( 'NONE',  ( 1.326762908760390423E-13, -4.653657836759941941E-15, 38.00000000000000000 ) ) ;
#139 = DIRECTION ( 'NONE',  ( -3.491481338843133355E-15, 1.224646799147353207E-16, -1.000000000000000000 ) ) ;
#140 = CARTESIAN_POINT ( 'NONE',  ( 1.314542724074439550E-13, -4.610795198789784797E-15, 37.64999999999999858 ) ) ;
#141 = PLANE ( 'NONE',  #149 ) ;
#142 = CONICAL_SURFACE ( 'NONE', #49, 1.019999999999995577, 1.221730476396026388 ) ;
#143 = COORDINATED_UNIVERSAL_TIME_OFFSET ( 1, 0, .AHEAD. ) ;
#144 = CLOSED_SHELL ( 'NONE', ( #192, #29, #86, #50 ) ) ;
#145 = APPROVAL_PERSON_ORGANIZATION ( #8, #89, #118 ) ;
#146 = PERSON_AND_ORGANIZATION ( #85, #100 ) ;
#147 = APPLICATION_PROTOCOL_DEFINITION ( 'international standard', 'config_control_design', 1994, #148 ) ;
#148 = APPLICATION_CONTEXT ( 'configuration controlled 3d designs of mechanical parts and assemblies' ) ;
#149 = AXIS2_PLACEMENT_3D ( 'NONE', #101, #40, #80 ) ;
#150 = APPROVAL_DATE_TIME ( #90, #89 ) ;
#151 = EDGE_LOOP ( 'NONE', ( #120 ) ) ;
#152 = CARTESIAN_POINT ( 'NONE',  ( 0.0000000000000000000, 0.0000000000000000000, 0.0000000000000000000 ) ) ;
#153 = ORIENTED_EDGE ( 'NONE', *, *, #171, .F. ) ;
#154 = DIRECTION ( 'NONE',  ( -3.491481338843133355E-15, 1.224646799147353207E-16, -1.000000000000000000 ) ) ;
#155 = ADVANCED_FACE ( 'NONE', ( #170 ), #142, .T. ) ;
#156 = DIRECTION ( 'NONE',  ( -3.491481338843133355E-15, 1.224646799147353207E-16, -1.000000000000000000 ) ) ;
#157 = DIRECTION ( 'NONE',  ( 3.491481338843133355E-15, -1.224646799147353207E-16, 1.000000000000000000 ) ) ;
#158 = CALENDAR_DATE ( 2021, 15, 10 ) ;
#159 = LOCAL_TIME ( 15, 35, 0.0000000000000000000, #77 ) ;
#160 = ADVANCED_BREP_SHAPE_REPRESENTATION ( '954146', ( #71, #5, #46 ), #187 ) ;
#161 = ADVANCED_FACE ( 'NONE', ( #64 ), #19, .T. ) ;
#162 = COORDINATED_UNIVERSAL_TIME_OFFSET ( 1, 0, .AHEAD. ) ;
#163 = ORIENTED_EDGE ( 'NONE', *, *, #114, .T. ) ;
#164 = CALENDAR_DATE ( 2021, 15, 10 ) ;
#165 = EDGE_LOOP ( 'NONE', ( #182 ) ) ;
#166 = FACE_OUTER_BOUND ( 'NONE', #62, .T. ) ;
#167 = ORIENTED_EDGE ( 'NONE', *, *, #171, .T. ) ;
#168 = VERTEX_POINT ( 'NONE', #22 ) ;
#169 = DIRECTION ( 'NONE',  ( 0.0000000000000000000, 1.000000000000000000, 0.0000000000000000000 ) ) ;
#170 = FACE_OUTER_BOUND ( 'NONE', #30, .T. ) ;
#171 = EDGE_CURVE ( 'NONE', #168, #168, #196, .T. ) ;
#172 = CARTESIAN_POINT ( 'NONE',  ( 1.296211186451517277E-15, 1.019999999999995577, 0.3712496389515298478 ) ) ;
#173 = PERSON_AND_ORGANIZATION_ROLE ( 'creator' ) ;
#174 = AXIS2_PLACEMENT_3D ( 'NONE', #16, #125, #53 ) ;
#175 = CC_DESIGN_SECURITY_CLASSIFICATION ( #129, ( #66 ) ) ;
#176 = APPROVAL_DATE_TIME ( #74, #130 ) ;
#177 = PRODUCT_RELATED_PRODUCT_CATEGORY ( 'detail', '', ( #34 ) ) ;
#178 = APPROVAL_STATUS ( 'not_yet_approved' ) ;
#179 = CLOSED_SHELL ( 'NONE', ( #155, #94, #161 ) ) ;
#180 = APPROVAL_PERSON_ORGANIZATION ( #57, #130, #113 ) ;
#181 = APPROVAL_DATE_TIME ( #195, #13 ) ;
#182 = ORIENTED_EDGE ( 'NONE', *, *, #198, .T. ) ;
#183 = EDGE_LOOP ( 'NONE', ( #35 ) ) ;
#184 = APPROVAL_PERSON_ORGANIZATION ( #88, #13, #28 ) ;
#185 = ORIENTED_EDGE ( 'NONE', *, *, #54, .T. ) ;
#186 = DIRECTION ( 'NONE',  ( -3.491481338843133355E-15, 1.224646799147353207E-16, -1.000000000000000000 ) ) ;
#187 =( GEOMETRIC_REPRESENTATION_CONTEXT ( 3 ) GLOBAL_UNCERTAINTY_ASSIGNED_CONTEXT ( ( #201 ) ) GLOBAL_UNIT_ASSIGNED_CONTEXT ( ( #24, #132, #199 ) ) REPRESENTATION_CONTEXT ( 'NONE', 'WORKASPACE' ) );
#188 = DIRECTION ( 'NONE',  ( 3.491481338843133355E-15, -1.224646799147353207E-16, 1.000000000000000000 ) ) ;
#189 = CARTESIAN_POINT ( 'NONE',  ( 1.296211186451516882E-15, -4.546496820266014129E-17, 0.3712496389515297368 ) ) ;
#190 = AXIS2_PLACEMENT_3D ( 'NONE', #108, #188, #69 ) ;
#191 = DATE_AND_TIME ( #11, #31 ) ;
#192 = ADVANCED_FACE ( 'NONE', ( #1 ), #99, .F. ) ;
#193 = CC_DESIGN_DATE_AND_TIME_ASSIGNMENT ( #75, #59, ( #129 ) ) ;
#194 = PERSON_AND_ORGANIZATION_ROLE ( 'classification_officer' ) ;
#195 = DATE_AND_TIME ( #27, #121 ) ;
#196 = CIRCLE ( 'NONE', #79, 1.019999999999997131 ) ;
#197 = CC_DESIGN_APPROVAL ( #13, ( #129 ) ) ;
#198 = EDGE_CURVE ( 'NONE', #97, #97, #128, .T. ) ;
#199 =( NAMED_UNIT ( * ) SI_UNIT ( $, .STERADIAN. ) SOLID_ANGLE_UNIT ( ) );
#200 = EDGE_LOOP ( 'NONE', ( #167 ) ) ;
#201 = UNCERTAINTY_MEASURE_WITH_UNIT (LENGTH_MEASURE( 1.000000000000000082E-05 ), #24, 'distance_accuracy_value', 'NONE');
#202 = EDGE_LOOP ( 'NONE', ( #185 ) ) ;
#203 = AXIS2_PLACEMENT_3D ( 'NONE', #152, #12, #78 ) ;
ENDSEC;
END-ISO-10303-21;
