ISO-10303-21;
HEADER;
FILE_DESCRIPTION (( 'STEP AP203' ),
    '1' );
FILE_NAME ('954090.step',
    '2021-11-10T06:36:51',
    ( '' ),
    ( '' ),
    'SwSTEP 2.0',
    'SolidWorks 2019',
    '' );
FILE_SCHEMA (( 'CONFIG_CONTROL_DESIGN' ));
ENDSEC;

DATA;
#1 = APPROVAL_DATE_TIME ( #109, #216 ) ;
#2 = EDGE_LOOP ( 'NONE', ( #229 ) ) ;
#3 = DATE_AND_TIME ( #208, #88 ) ;
#4 = CIRCLE ( 'NONE', #149, 1.499999999999996225 ) ;
#5 = PERSON_AND_ORGANIZATION ( #114, #76 ) ;
#6 = CARTESIAN_POINT ( 'NONE',  ( 4.189777606611751546E-16, -1.517883041479707440E-17, 0.1199999999999997596 ) ) ;
#7 = ORIENTED_EDGE ( 'NONE', *, *, #15, .T. ) ;
#8 = CLOSED_SHELL ( 'NONE', ( #104, #188, #39 ) ) ;
#9 = LOCAL_TIME ( 7, 36, 51.00000000000000000, #40 ) ;
#10 = DIRECTION ( 'NONE',  ( 3.491481338843133355E-15, -1.224646799147353207E-16, 1.000000000000000000 ) ) ;
#11 = ORIENTED_EDGE ( 'NONE', *, *, #100, .T. ) ;
#12 = EDGE_LOOP ( 'NONE', ( #77 ) ) ;
#13 = DIRECTION ( 'NONE',  ( 1.000000000000000000, 0.0000000000000000000, -3.388131789017192284E-15 ) ) ;
#14 = TOROIDAL_SURFACE ( 'NONE', #132, 2.060000000000000053, 2.000000000000000000 ) ;
#15 = EDGE_CURVE ( 'NONE', #217, #217, #194, .T. ) ;
#16 = CARTESIAN_POINT ( 'NONE',  ( 4.189777606611743164E-16, 0.0000000000000000000, 0.1199999999999995098 ) ) ;
#17 = DIRECTION ( 'NONE',  ( 3.491481338843133355E-15, -0.0000000000000000000, 1.000000000000000000 ) ) ;
#18 = FACE_OUTER_BOUND ( 'NONE', #2, .T. ) ;
#19 = CC_DESIGN_PERSON_AND_ORGANIZATION_ASSIGNMENT ( #36, #24, ( #177 ) ) ;
#20 = AXIS2_PLACEMENT_3D ( 'NONE', #141, #147, #13 ) ;
#21 = DIRECTION ( 'NONE',  ( 1.000000000000000000, 0.0000000000000000000, -3.491481338843133750E-15 ) ) ;
#22 = APPLICATION_PROTOCOL_DEFINITION ( 'international standard', 'config_control_design', 1994, #135 ) ;
#23 = ADVANCED_FACE ( 'NONE', ( #232, #214 ), #193, .T. ) ;
#24 = PERSON_AND_ORGANIZATION_ROLE ( 'classification_officer' ) ;
#25 = DATE_AND_TIME ( #128, #9 ) ;
#26 = DIRECTION ( 'NONE',  ( 4.275831445896958607E-31, 1.000000000000000000, 1.224646799147353207E-16 ) ) ;
#27 = ORIENTED_EDGE ( 'NONE', *, *, #233, .F. ) ;
#28 = CONICAL_SURFACE ( 'NONE', #153, 1.199999999999998845, 0.7853981633974450594 ) ;
#29 = PLANE ( 'NONE',  #164 ) ;
#30 = EDGE_LOOP ( 'NONE', ( #234 ) ) ;
#31 = CARTESIAN_POINT ( 'NONE',  ( 0.06000000000000058065, 0.0000000000000000000, 0.1199999999999990657 ) ) ;
#32 = DIRECTION ( 'NONE',  ( 3.491481338843133355E-15, -0.0000000000000000000, 1.000000000000000000 ) ) ;
#33 =( NAMED_UNIT ( * ) SI_UNIT ( $, .STERADIAN. ) SOLID_ANGLE_UNIT ( ) );
#34 = DIRECTION ( 'NONE',  ( 3.491481338843133355E-15, -0.0000000000000000000, 1.000000000000000000 ) ) ;
#35 = AXIS2_PLACEMENT_3D ( 'NONE', #192, #197, #239 ) ;
#36 = PERSON_AND_ORGANIZATION ( #114, #76 ) ;
#37 = PERSON_AND_ORGANIZATION ( #114, #76 ) ;
#38 = DATE_TIME_ROLE ( 'classification_date' ) ;
#39 = ADVANCED_FACE ( 'NONE', ( #78 ), #29, .F. ) ;
#40 = COORDINATED_UNIVERSAL_TIME_OFFSET ( 1, 0, .AHEAD. ) ;
#41 = DIRECTION ( 'NONE',  ( 1.000000000000000000, 0.0000000000000000000, -3.491481338843133355E-15 ) ) ;
#42 = APPROVAL ( #241, 'UNSPECIFIED' ) ;
#43 = EDGE_LOOP ( 'NONE', ( #90 ) ) ;
#44 = EDGE_LOOP ( 'NONE', ( #154 ) ) ;
#45 = FACE_OUTER_BOUND ( 'NONE', #211, .T. ) ;
#46 = VERTEX_POINT ( 'NONE', #118 ) ;
#47 = AXIS2_PLACEMENT_3D ( 'NONE', #157, #110, #26 ) ;
#48 = FACE_BOUND ( 'NONE', #95, .T. ) ;
#49 = FACE_OUTER_BOUND ( 'NONE', #30, .T. ) ;
#50 = CARTESIAN_POINT ( 'NONE',  ( 0.05999999999999994227, 0.0000000000000000000, -2.094888803305877992E-16 ) ) ;
#51 = DATE_TIME_ROLE ( 'creation_date' ) ;
#52 = SECURITY_CLASSIFICATION_LEVEL ( 'unclassified' ) ;
#53 = APPROVAL_STATUS ( 'not_yet_approved' ) ;
#54 = DIRECTION ( 'NONE',  ( 1.000000000000000000, 0.0000000000000000000, 0.0000000000000000000 ) ) ;
#55 = ADVANCED_FACE ( 'NONE', ( #235 ), #140, .F. ) ;
#56 = DIRECTION ( 'NONE',  ( -3.491481338843133355E-15, 1.224646799147353207E-16, -1.000000000000000000 ) ) ;
#57 = LOCAL_TIME ( 7, 36, 51.00000000000000000, #221 ) ;
#58 = DIRECTION ( 'NONE',  ( 1.000000000000000000, 0.0000000000000000000, -3.384209611119982009E-15 ) ) ;
#59 = ORIENTED_EDGE ( 'NONE', *, *, #15, .F. ) ;
#60 = EDGE_LOOP ( 'NONE', ( #137 ) ) ;
#61 = EDGE_CURVE ( 'NONE', #46, #46, #92, .T. ) ;
#62 = LOCAL_TIME ( 7, 36, 51.00000000000000000, #151 ) ;
#63 = EDGE_LOOP ( 'NONE', ( #176 ) ) ;
#64 = PRODUCT_RELATED_PRODUCT_CATEGORY ( 'detail', '', ( #183 ) ) ;
#65 = CARTESIAN_POINT ( 'NONE',  ( 2.010205771808586325E-14, 0.0000000000000000000, 5.757458158074095778 ) ) ;
#66 =( NAMED_UNIT ( * ) PLANE_ANGLE_UNIT ( ) SI_UNIT ( $, .RADIAN. ) );
#67 = LOCAL_TIME ( 7, 36, 51.00000000000000000, #87 ) ;
#68 = FACE_OUTER_BOUND ( 'NONE', #44, .T. ) ;
#69 = DIRECTION ( 'NONE',  ( 1.000000000000000000, 0.0000000000000000000, -3.469446951953622866E-15 ) ) ;
#70 = APPROVAL_DATE_TIME ( #152, #42 ) ;
#71 = CALENDAR_DATE ( 2021, 10, 11 ) ;
#72 = SHAPE_DEFINITION_REPRESENTATION ( #238, #185 ) ;
#73 = ADVANCED_FACE ( 'NONE', ( #134 ), #212, .F. ) ;
#74 = AXIS2_PLACEMENT_3D ( 'NONE', #180, #17, #240 ) ;
#75 = CARTESIAN_POINT ( 'NONE',  ( 1.316288464743861212E-13, -4.616918432785521081E-15, 37.69999999999999574 ) ) ;
#76 = ORGANIZATION ( 'UNSPECIFIED', 'UNSPECIFIED', '' ) ;
#77 = ORIENTED_EDGE ( 'NONE', *, *, #210, .T. ) ;
#78 = FACE_OUTER_BOUND ( 'NONE', #113, .T. ) ;
#79 = FACE_OUTER_BOUND ( 'NONE', #98, .T. ) ;
#80 = PRODUCT_DEFINITION ( 'UNKNOWN', '', #219, #130 ) ;
#81 = CARTESIAN_POINT ( 'NONE',  ( 0.06000000000000058065, 0.0000000000000000000, 0.1199999999999990657 ) ) ;
#82 = CARTESIAN_POINT ( 'NONE',  ( 1.326762908760390423E-13, -4.653657836759941941E-15, 38.00000000000000000 ) ) ;
#83 = FACE_BOUND ( 'NONE', #12, .T. ) ;
#84 = CC_DESIGN_APPROVAL ( #216, ( #177 ) ) ;
#85 = DIRECTION ( 'NONE',  ( -3.491481338843133355E-15, 1.224646799147353207E-16, -1.000000000000000000 ) ) ;
#86 = PERSON_AND_ORGANIZATION ( #114, #76 ) ;
#87 = COORDINATED_UNIVERSAL_TIME_OFFSET ( 1, 0, .AHEAD. ) ;
#88 = LOCAL_TIME ( 7, 36, 51.00000000000000000, #207 ) ;
#89 = CC_DESIGN_PERSON_AND_ORGANIZATION_ASSIGNMENT ( #5, #203, ( #219 ) ) ;
#90 = ORIENTED_EDGE ( 'NONE', *, *, #145, .F. ) ;
#91 = APPROVAL_STATUS ( 'not_yet_approved' ) ;
#92 = CIRCLE ( 'NONE', #209, 0.1281483474218601815 ) ;
#93 = DIRECTION ( 'NONE',  ( 3.491481338843133355E-15, -0.0000000000000000000, 1.000000000000000000 ) ) ;
#94 = DIRECTION ( 'NONE',  ( -4.275831445896958607E-31, -1.000000000000000000, -1.224646799147353207E-16 ) ) ;
#95 = EDGE_LOOP ( 'NONE', ( #159 ) ) ;
#96 = APPROVAL_PERSON_ORGANIZATION ( #171, #216, #126 ) ;
#97 = ORIENTED_EDGE ( 'NONE', *, *, #210, .F. ) ;
#98 = EDGE_LOOP ( 'NONE', ( #27 ) ) ;
#99 = VERTEX_POINT ( 'NONE', #162 ) ;
#100 = EDGE_CURVE ( 'NONE', #220, #220, #242, .T. ) ;
#101 = AXIS2_PLACEMENT_3D ( 'NONE', #117, #231, #195 ) ;
#102 = CARTESIAN_POINT ( 'NONE',  ( 2.010205771808586325E-14, 0.0000000000000000000, 5.757458158074095778 ) ) ;
#103 = VERTEX_POINT ( 'NONE', #196 ) ;
#104 = ADVANCED_FACE ( 'NONE', ( #112 ), #191, .T. ) ;
#105 = PERSON_AND_ORGANIZATION ( #114, #76 ) ;
#106 = DIRECTION ( 'NONE',  ( 0.0000000000000000000, 0.0000000000000000000, 1.000000000000000000 ) ) ;
#107 = APPROVAL_ROLE ( '' ) ;
#108 = APPROVAL_PERSON_ORGANIZATION ( #105, #225, #107 ) ;
#109 = DATE_AND_TIME ( #224, #62 ) ;
#110 = DIRECTION ( 'NONE',  ( -3.491481338843133355E-15, 1.224646799147353207E-16, -1.000000000000000000 ) ) ;
#111 = CIRCLE ( 'NONE', #20, 0.06000000000000015737 ) ;
#112 = FACE_OUTER_BOUND ( 'NONE', #63, .T. ) ;
#113 = EDGE_LOOP ( 'NONE', ( #59 ) ) ;
#114 = PERSON ( 'UNSPECIFIED', 'UNSPECIFIED', 'UNSPECIFIED', ('UNSPECIFIED'), ('UNSPECIFIED'), ('UNSPECIFIED') ) ;
#115 = CARTESIAN_POINT ( 'NONE',  ( 0.0000000000000000000, 0.0000000000000000000, 0.0000000000000000000 ) ) ;
#116 = AXIS2_PLACEMENT_3D ( 'NONE', #75, #56, #131 ) ;
#117 = CARTESIAN_POINT ( 'NONE',  ( 0.0000000000000000000, 0.0000000000000000000, 0.0000000000000000000 ) ) ;
#118 = CARTESIAN_POINT ( 'NONE',  ( 0.1281483474218624019, 0.0000000000000000000, 0.6376380902050277077 ) ) ;
#119 = MANIFOLD_SOLID_BREP ( 'Corps-Déplacer/Copier1[1]', #189 ) ;
#120 = DIRECTION ( 'NONE',  ( 1.000000000000000000, 0.0000000000000000000, -3.491481338843133355E-15 ) ) ;
#121 = AXIS2_PLACEMENT_3D ( 'NONE', #65, #34, #161 ) ;
#122 = VERTEX_POINT ( 'NONE', #31 ) ;
#123 = FACE_OUTER_BOUND ( 'NONE', #60, .T. ) ;
#124 =( GEOMETRIC_REPRESENTATION_CONTEXT ( 3 ) GLOBAL_UNCERTAINTY_ASSIGNED_CONTEXT ( ( #156 ) ) GLOBAL_UNIT_ASSIGNED_CONTEXT ( ( #237, #66, #33 ) ) REPRESENTATION_CONTEXT ( 'NONE', 'WORKASPACE' ) );
#125 = PERSON_AND_ORGANIZATION_ROLE ( 'creator' ) ;
#126 = APPROVAL_ROLE ( '' ) ;
#127 = CC_DESIGN_PERSON_AND_ORGANIZATION_ASSIGNMENT ( #86, #129, ( #183 ) ) ;
#128 = CALENDAR_DATE ( 2021, 10, 11 ) ;
#129 = PERSON_AND_ORGANIZATION_ROLE ( 'design_owner' ) ;
#130 = DESIGN_CONTEXT ( 'detailed design', #163, 'design' ) ;
#131 = DIRECTION ( 'NONE',  ( 0.0000000000000000000, 1.000000000000000000, 0.0000000000000000000 ) ) ;
#132 = AXIS2_PLACEMENT_3D ( 'NONE', #16, #146, #120 ) ;
#133 = CONICAL_SURFACE ( 'NONE', #121, 1.499999999999996225, 0.2617993877991428020 ) ;
#134 = FACE_OUTER_BOUND ( 'NONE', #43, .T. ) ;
#135 = APPLICATION_CONTEXT ( 'configuration controlled 3d designs of mechanical parts and assemblies' ) ;
#136 = CC_DESIGN_PERSON_AND_ORGANIZATION_ASSIGNMENT ( #173, #125, ( #219 ) ) ;
#137 = ORIENTED_EDGE ( 'NONE', *, *, #61, .F. ) ;
#138 = CC_DESIGN_DATE_AND_TIME_ASSIGNMENT ( #223, #38, ( #177 ) ) ;
#139 = EDGE_LOOP ( 'NONE', ( #97 ) ) ;
#140 = PLANE ( 'NONE',  #47 ) ;
#141 = CARTESIAN_POINT ( 'NONE',  ( 4.189777606611734290E-16, 0.0000000000000000000, 0.1199999999999992739 ) ) ;
#142 = DIRECTION ( 'NONE',  ( 0.0000000000000000000, 1.000000000000000000, 0.0000000000000000000 ) ) ;
#143 = CC_DESIGN_APPROVAL ( #225, ( #219 ) ) ;
#144 = DIRECTION ( 'NONE',  ( 3.491481338843133355E-15, -0.0000000000000000000, 1.000000000000000000 ) ) ;
#145 = EDGE_CURVE ( 'NONE', #122, #122, #227, .T. ) ;
#146 = DIRECTION ( 'NONE',  ( 3.491481338843133355E-15, -0.0000000000000000000, 1.000000000000000000 ) ) ;
#147 = DIRECTION ( 'NONE',  ( 3.491481338843133355E-15, -0.0000000000000000000, 1.000000000000000000 ) ) ;
#148 = EDGE_CURVE ( 'NONE', #200, #200, #111, .T. ) ;
#149 = AXIS2_PLACEMENT_3D ( 'NONE', #102, #144, #69 ) ;
#150 = PERSON_AND_ORGANIZATION_ROLE ( 'creator' ) ;
#151 = COORDINATED_UNIVERSAL_TIME_OFFSET ( 1, 0, .AHEAD. ) ;
#152 = DATE_AND_TIME ( #71, #57 ) ;
#153 = AXIS2_PLACEMENT_3D ( 'NONE', #82, #201, #142 ) ;
#154 = ORIENTED_EDGE ( 'NONE', *, *, #100, .F. ) ;
#155 = DIRECTION ( 'NONE',  ( 3.491481338843133355E-15, -1.224646799147353207E-16, 1.000000000000000000 ) ) ;
#156 = UNCERTAINTY_MEASURE_WITH_UNIT (LENGTH_MEASURE( 1.000000000000000082E-05 ), #237, 'distance_accuracy_value', 'NONE');
#157 = CARTESIAN_POINT ( 'NONE',  ( 1.326762908760390423E-13, 8.998558695971069014E-33, 38.00000000000000000 ) ) ;
#158 = AXIS2_PLACEMENT_3D ( 'NONE', #115, #179, #41 ) ;
#159 = ORIENTED_EDGE ( 'NONE', *, *, #61, .T. ) ;
#160 = DIRECTION ( 'NONE',  ( -4.275831445896958607E-31, -1.000000000000000000, -1.224646799147353207E-16 ) ) ;
#161 = DIRECTION ( 'NONE',  ( 1.000000000000000000, 0.0000000000000000000, -3.469446951953622866E-15 ) ) ;
#162 = CARTESIAN_POINT ( 'NONE',  ( 1.500000000000016209, 0.0000000000000000000, 5.757458158074090449 ) ) ;
#163 = APPLICATION_CONTEXT ( 'configuration controlled 3d designs of mechanical parts and assemblies' ) ;
#164 = AXIS2_PLACEMENT_3D ( 'NONE', #178, #10, #160 ) ;
#165 = DIRECTION ( 'NONE',  ( 0.0000000000000000000, 1.000000000000000000, 0.0000000000000000000 ) ) ;
#166 = CYLINDRICAL_SURFACE ( 'NONE', #181, 0.06000000000000004635 ) ;
#167 = PERSON_AND_ORGANIZATION ( #114, #76 ) ;
#168 = ADVANCED_FACE ( 'NONE', ( #68, #83 ), #28, .T. ) ;
#169 = APPROVAL_PERSON_ORGANIZATION ( #167, #42, #204 ) ;
#170 = APPLICATION_PROTOCOL_DEFINITION ( 'international standard', 'config_control_design', 1994, #163 ) ;
#171 = PERSON_AND_ORGANIZATION ( #114, #76 ) ;
#172 = EDGE_LOOP ( 'NONE', ( #174 ) ) ;
#173 = PERSON_AND_ORGANIZATION ( #114, #76 ) ;
#174 = ORIENTED_EDGE ( 'NONE', *, *, #233, .T. ) ;
#175 = ADVANCED_FACE ( 'NONE', ( #48, #79 ), #133, .T. ) ;
#176 = ORIENTED_EDGE ( 'NONE', *, *, #148, .T. ) ;
#177 = SECURITY_CLASSIFICATION ( '', '', #52 ) ;
#178 = CARTESIAN_POINT ( 'NONE',  ( -6.413803915257457113E-31, 2.249659577954772199E-32, -1.836986451539393076E-16 ) ) ;
#179 = DIRECTION ( 'NONE',  ( 3.491481338843133355E-15, -0.0000000000000000000, 1.000000000000000000 ) ) ;
#180 = CARTESIAN_POINT ( 'NONE',  ( 4.189777606611734290E-16, 0.0000000000000000000, 0.1199999999999992739 ) ) ;
#181 = AXIS2_PLACEMENT_3D ( 'NONE', #184, #32, #21 ) ;
#182 = CARTESIAN_POINT ( 'NONE',  ( 1.316288464743861212E-13, 1.499999999999994005, 37.69999999999999574 ) ) ;
#183 = PRODUCT ( '954090', '954090', '', ( #228 ) ) ;
#184 = CARTESIAN_POINT ( 'NONE',  ( -1.786038389295302186E-30, 0.0000000000000000000, -5.115417256925931626E-16 ) ) ;
#185 = ADVANCED_BREP_SHAPE_REPRESENTATION ( '954090', ( #119, #205, #222 ), #124 ) ;
#186 = APPROVAL_DATE_TIME ( #25, #225 ) ;
#187 = AXIS2_PLACEMENT_3D ( 'NONE', #6, #155, #94 ) ;
#188 = ADVANCED_FACE ( 'NONE', ( #45, #18 ), #166, .T. ) ;
#189 = CLOSED_SHELL ( 'NONE', ( #23, #168, #55, #190, #175, #73 ) ) ;
#190 = ADVANCED_FACE ( 'NONE', ( #49, #123 ), #14, .F. ) ;
#191 = PLANE ( 'NONE',  #35 ) ;
#192 = CARTESIAN_POINT ( 'NONE',  ( 4.189777606611751546E-16, -1.517883041479707440E-17, 0.1199999999999997596 ) ) ;
#193 = CYLINDRICAL_SURFACE ( 'NONE', #101, 1.499999999999996225 ) ;
#194 = CIRCLE ( 'NONE', #158, 0.05999999999999994227 ) ;
#195 = DIRECTION ( 'NONE',  ( 4.275831445896958607E-31, 1.000000000000000000, 1.224646799147353207E-16 ) ) ;
#196 = CARTESIAN_POINT ( 'NONE',  ( 1.326762908760390423E-13, 1.199999999999994182, 38.00000000000000000 ) ) ;
#197 = DIRECTION ( 'NONE',  ( 3.491481338843133355E-15, -1.224646799147353207E-16, 1.000000000000000000 ) ) ;
#198 = CC_DESIGN_APPROVAL ( #42, ( #80 ) ) ;
#199 = CC_DESIGN_PERSON_AND_ORGANIZATION_ASSIGNMENT ( #37, #150, ( #80 ) ) ;
#200 = VERTEX_POINT ( 'NONE', #81 ) ;
#201 = DIRECTION ( 'NONE',  ( -3.491481338843133355E-15, 1.224646799147353207E-16, -1.000000000000000000 ) ) ;
#202 = CC_DESIGN_SECURITY_CLASSIFICATION ( #177, ( #219 ) ) ;
#203 = PERSON_AND_ORGANIZATION_ROLE ( 'design_supplier' ) ;
#204 = APPROVAL_ROLE ( '' ) ;
#205 = MANIFOLD_SOLID_BREP ( 'Corps-Déplacer/Copier1[2]', #8 ) ;
#206 = CC_DESIGN_DATE_AND_TIME_ASSIGNMENT ( #3, #51, ( #80 ) ) ;
#207 = COORDINATED_UNIVERSAL_TIME_OFFSET ( 1, 0, .AHEAD. ) ;
#208 = CALENDAR_DATE ( 2021, 10, 11 ) ;
#209 = AXIS2_PLACEMENT_3D ( 'NONE', #230, #93, #58 ) ;
#210 = EDGE_CURVE ( 'NONE', #103, #103, #215, .T. ) ;
#211 = EDGE_LOOP ( 'NONE', ( #7 ) ) ;
#212 = PLANE ( 'NONE',  #187 ) ;
#213 = EDGE_LOOP ( 'NONE', ( #11 ) ) ;
#214 = FACE_OUTER_BOUND ( 'NONE', #172, .T. ) ;
#215 = CIRCLE ( 'NONE', #236, 1.199999999999998845 ) ;
#216 = APPROVAL ( #53, 'UNSPECIFIED' ) ;
#217 = VERTEX_POINT ( 'NONE', #50 ) ;
#218 = CARTESIAN_POINT ( 'NONE',  ( 1.326762908760390423E-13, -4.653657836759941941E-15, 38.00000000000000000 ) ) ;
#219 = PRODUCT_DEFINITION_FORMATION_WITH_SPECIFIED_SOURCE ( 'ANY', '', #183, .NOT_KNOWN. ) ;
#220 = VERTEX_POINT ( 'NONE', #182 ) ;
#221 = COORDINATED_UNIVERSAL_TIME_OFFSET ( 1, 0, .AHEAD. ) ;
#222 = AXIS2_PLACEMENT_3D ( 'NONE', #243, #106, #54 ) ;
#223 = DATE_AND_TIME ( #226, #67 ) ;
#224 = CALENDAR_DATE ( 2021, 10, 11 ) ;
#225 = APPROVAL ( #91, 'UNSPECIFIED' ) ;
#226 = CALENDAR_DATE ( 2021, 10, 11 ) ;
#227 = CIRCLE ( 'NONE', #74, 0.06000000000000015737 ) ;
#228 = MECHANICAL_CONTEXT ( 'NONE', #135, 'mechanical' ) ;
#229 = ORIENTED_EDGE ( 'NONE', *, *, #148, .F. ) ;
#230 = CARTESIAN_POINT ( 'NONE',  ( 2.226301492886430648E-15, 0.0000000000000000000, 0.6376380902050281518 ) ) ;
#231 = DIRECTION ( 'NONE',  ( -3.491481338843133355E-15, 1.224646799147353207E-16, -1.000000000000000000 ) ) ;
#232 = FACE_OUTER_BOUND ( 'NONE', #213, .T. ) ;
#233 = EDGE_CURVE ( 'NONE', #99, #99, #4, .T. ) ;
#234 = ORIENTED_EDGE ( 'NONE', *, *, #145, .T. ) ;
#235 = FACE_OUTER_BOUND ( 'NONE', #139, .T. ) ;
#236 = AXIS2_PLACEMENT_3D ( 'NONE', #218, #85, #165 ) ;
#237 =( LENGTH_UNIT ( ) NAMED_UNIT ( * ) SI_UNIT ( .MILLI., .METRE. ) );
#238 = PRODUCT_DEFINITION_SHAPE ( 'NONE', 'NONE',  #80 ) ;
#239 = DIRECTION ( 'NONE',  ( -4.275831445896958607E-31, -1.000000000000000000, -1.224646799147353207E-16 ) ) ;
#240 = DIRECTION ( 'NONE',  ( 1.000000000000000000, 0.0000000000000000000, -3.388131789017192284E-15 ) ) ;
#241 = APPROVAL_STATUS ( 'not_yet_approved' ) ;
#242 = CIRCLE ( 'NONE', #116, 1.499999999999998446 ) ;
#243 = CARTESIAN_POINT ( 'NONE',  ( 0.0000000000000000000, 0.0000000000000000000, 0.0000000000000000000 ) ) ;
ENDSEC;
END-ISO-10303-21;
