ISO-10303-21;
HEADER;
FILE_DESCRIPTION (( 'STEP AP203' ),
    '1' );
FILE_NAME ('954089.step',
    '2021-11-10T06:36:51',
    ( '' ),
    ( '' ),
    'SwSTEP 2.0',
    'SolidWorks 2019',
    '' );
FILE_SCHEMA (( 'CONFIG_CONTROL_DESIGN' ));
ENDSEC;

DATA;
#1 = COORDINATED_UNIVERSAL_TIME_OFFSET ( 1, 0, .AHEAD. ) ;
#2 = LOCAL_TIME ( 7, 36, 51.00000000000000000, #6 ) ;
#3 = EDGE_CURVE ( 'NONE', #133, #133, #69, .T. ) ;
#4 = AXIS2_PLACEMENT_3D ( 'NONE', #201, #88, #70 ) ;
#5 = AXIS2_PLACEMENT_3D ( 'NONE', #128, #90, #29 ) ;
#6 = COORDINATED_UNIVERSAL_TIME_OFFSET ( 1, 0, .AHEAD. ) ;
#7 = APPROVAL_STATUS ( 'not_yet_approved' ) ;
#8 = APPROVAL_ROLE ( '' ) ;
#9 = ORIENTED_EDGE ( 'NONE', *, *, #21, .F. ) ;
#10 = DIRECTION ( 'NONE',  ( 1.000000000000000000, 0.0000000000000000000, -3.469446951953622866E-15 ) ) ;
#11 = EDGE_LOOP ( 'NONE', ( #147 ) ) ;
#12 = CC_DESIGN_DATE_AND_TIME_ASSIGNMENT ( #215, #85, ( #186 ) ) ;
#13 = CARTESIAN_POINT ( 'NONE',  ( 3.142333204958794678E-16, 0.0000000000000000000, 0.08999999999999927502 ) ) ;
#14 = AXIS2_PLACEMENT_3D ( 'NONE', #115, #224, #149 ) ;
#15 = LOCAL_TIME ( 7, 36, 51.00000000000000000, #67 ) ;
#16 = FACE_OUTER_BOUND ( 'NONE', #89, .T. ) ;
#17 = CARTESIAN_POINT ( 'NONE',  ( 1.326762908760390423E-13, 8.998558695971069014E-33, 38.00000000000000000 ) ) ;
#18 = CARTESIAN_POINT ( 'NONE',  ( 1.326762908760390423E-13, 1.199999999999994182, 38.00000000000000000 ) ) ;
#19 = DESIGN_CONTEXT ( 'detailed design', #123, 'design' ) ;
#20 = DIRECTION ( 'NONE',  ( 0.0000000000000000000, 0.0000000000000000000, 1.000000000000000000 ) ) ;
#21 = EDGE_CURVE ( 'NONE', #203, #203, #79, .T. ) ;
#22 = CONICAL_SURFACE ( 'NONE', #148, 1.499999999999996225, 0.2617993877991428020 ) ;
#23 = PERSON_AND_ORGANIZATION ( #32, #180 ) ;
#24 = APPROVAL_PERSON_ORGANIZATION ( #23, #99, #170 ) ;
#25 = CIRCLE ( 'NONE', #192, 0.04499999999999990119 ) ;
#26 = SHAPE_DEFINITION_REPRESENTATION ( #53, #142 ) ;
#27 = APPROVAL_STATUS ( 'not_yet_approved' ) ;
#28 = ORIENTED_EDGE ( 'NONE', *, *, #231, .T. ) ;
#29 = DIRECTION ( 'NONE',  ( -4.275831445896958607E-31, -1.000000000000000000, -1.224646799147353207E-16 ) ) ;
#30 = EDGE_CURVE ( 'NONE', #168, #168, #213, .T. ) ;
#31 = DIRECTION ( 'NONE',  ( -3.491481338843133355E-15, 1.224646799147353207E-16, -1.000000000000000000 ) ) ;
#32 = PERSON ( 'UNSPECIFIED', 'UNSPECIFIED', 'UNSPECIFIED', ('UNSPECIFIED'), ('UNSPECIFIED'), ('UNSPECIFIED') ) ;
#33 = FACE_BOUND ( 'NONE', #108, .T. ) ;
#34 = DIRECTION ( 'NONE',  ( 3.491481338843133355E-15, -1.224646799147353207E-16, 1.000000000000000000 ) ) ;
#35 = CC_DESIGN_APPROVAL ( #99, ( #186 ) ) ;
#36 = DIRECTION ( 'NONE',  ( 1.000000000000000000, 0.0000000000000000000, -3.469446951953622866E-15 ) ) ;
#37 =( NAMED_UNIT ( * ) SI_UNIT ( $, .STERADIAN. ) SOLID_ANGLE_UNIT ( ) );
#38 = DIRECTION ( 'NONE',  ( 3.491481338843133355E-15, -1.224646799147353207E-16, 1.000000000000000000 ) ) ;
#39 = VERTEX_POINT ( 'NONE', #241 ) ;
#40 = ADVANCED_FACE ( 'NONE', ( #167 ), #145, .F. ) ;
#41 = CLOSED_SHELL ( 'NONE', ( #114, #159, #60 ) ) ;
#42 = PERSON_AND_ORGANIZATION_ROLE ( 'design_owner' ) ;
#43 = AXIS2_PLACEMENT_3D ( 'NONE', #73, #199, #106 ) ;
#44 = CC_DESIGN_PERSON_AND_ORGANIZATION_ASSIGNMENT ( #153, #42, ( #210 ) ) ;
#45 = CC_DESIGN_SECURITY_CLASSIFICATION ( #120, ( #208 ) ) ;
#46 = ADVANCED_FACE ( 'NONE', ( #222, #195 ), #152, .T. ) ;
#47 = APPROVAL_ROLE ( '' ) ;
#48 = CARTESIAN_POINT ( 'NONE',  ( 1.316288464743861212E-13, -4.616918432785521081E-15, 37.69999999999999574 ) ) ;
#49 = APPROVAL_DATE_TIME ( #178, #220 ) ;
#50 = ORIENTED_EDGE ( 'NONE', *, *, #135, .T. ) ;
#51 = AXIS2_PLACEMENT_3D ( 'NONE', #94, #38, #55 ) ;
#52 = PLANE ( 'NONE',  #5 ) ;
#53 = PRODUCT_DEFINITION_SHAPE ( 'NONE', 'NONE',  #186 ) ;
#54 = ORIENTED_EDGE ( 'NONE', *, *, #231, .F. ) ;
#55 = DIRECTION ( 'NONE',  ( -4.275831445896958607E-31, -1.000000000000000000, -1.224646799147353207E-16 ) ) ;
#56 = DIRECTION ( 'NONE',  ( 3.491481338843133355E-15, -0.0000000000000000000, 1.000000000000000000 ) ) ;
#57 = CARTESIAN_POINT ( 'NONE',  ( 3.142333204958811934E-16, -1.138412281109780118E-17, 0.08999999999999976075 ) ) ;
#58 =( LENGTH_UNIT ( ) NAMED_UNIT ( * ) SI_UNIT ( .MILLI., .METRE. ) );
#59 = DIRECTION ( 'NONE',  ( 3.491481338843133355E-15, -0.0000000000000000000, 1.000000000000000000 ) ) ;
#60 = ADVANCED_FACE ( 'NONE', ( #181 ), #52, .F. ) ;
#61 = APPLICATION_PROTOCOL_DEFINITION ( 'international standard', 'config_control_design', 1994, #83 ) ;
#62 = EDGE_CURVE ( 'NONE', #39, #39, #206, .T. ) ;
#63 = AXIS2_PLACEMENT_3D ( 'NONE', #198, #116, #219 ) ;
#64 = EDGE_CURVE ( 'NONE', #221, #221, #126, .T. ) ;
#65 = COORDINATED_UNIVERSAL_TIME_OFFSET ( 1, 0, .AHEAD. ) ;
#66 = LOCAL_TIME ( 7, 36, 51.00000000000000000, #109 ) ;
#67 = COORDINATED_UNIVERSAL_TIME_OFFSET ( 1, 0, .AHEAD. ) ;
#68 = EDGE_LOOP ( 'NONE', ( #175 ) ) ;
#69 = CIRCLE ( 'NONE', #119, 1.499999999999998446 ) ;
#70 = DIRECTION ( 'NONE',  ( 1.000000000000000000, 0.0000000000000000000, -3.832851993651088465E-15 ) ) ;
#71 = APPROVAL_PERSON_ORGANIZATION ( #197, #92, #47 ) ;
#72 = ORIENTED_EDGE ( 'NONE', *, *, #3, .F. ) ;
#73 = CARTESIAN_POINT ( 'NONE',  ( 1.326762908760390423E-13, -4.653657836759941941E-15, 38.00000000000000000 ) ) ;
#74 = FACE_BOUND ( 'NONE', #196, .T. ) ;
#75 = CARTESIAN_POINT ( 'NONE',  ( 0.04500000000000021344, 0.0000000000000000000, 0.08999999999999910849 ) ) ;
#76 = DIRECTION ( 'NONE',  ( 3.491481338843133355E-15, -0.0000000000000000000, 1.000000000000000000 ) ) ;
#77 = CARTESIAN_POINT ( 'NONE',  ( 0.04499999999999990119, 0.0000000000000000000, -1.571166602479406707E-16 ) ) ;
#78 = DIRECTION ( 'NONE',  ( 1.000000000000000000, 0.0000000000000000000, 0.0000000000000000000 ) ) ;
#79 = CIRCLE ( 'NONE', #14, 0.04499999999999990119 ) ;
#80 = CC_DESIGN_APPROVAL ( #92, ( #208 ) ) ;
#81 = ADVANCED_FACE ( 'NONE', ( #164 ), #237, .F. ) ;
#82 = AXIS2_PLACEMENT_3D ( 'NONE', #150, #187, #134 ) ;
#83 = APPLICATION_CONTEXT ( 'configuration controlled 3d designs of mechanical parts and assemblies' ) ;
#84 = DATE_AND_TIME ( #127, #100 ) ;
#85 = DATE_TIME_ROLE ( 'creation_date' ) ;
#86 = DATE_TIME_ROLE ( 'classification_date' ) ;
#87 = ORIENTED_EDGE ( 'NONE', *, *, #135, .F. ) ;
#88 = DIRECTION ( 'NONE',  ( 3.491481338843133355E-15, -0.0000000000000000000, 1.000000000000000000 ) ) ;
#89 = EDGE_LOOP ( 'NONE', ( #188 ) ) ;
#90 = DIRECTION ( 'NONE',  ( 3.491481338843133355E-15, -1.224646799147353207E-16, 1.000000000000000000 ) ) ;
#91 = DIRECTION ( 'NONE',  ( 0.0000000000000000000, 1.000000000000000000, 0.0000000000000000000 ) ) ;
#92 = APPROVAL ( #27, 'UNSPECIFIED' ) ;
#93 = MECHANICAL_CONTEXT ( 'NONE', #83, 'mechanical' ) ;
#94 = CARTESIAN_POINT ( 'NONE',  ( 3.142333204958811934E-16, -1.138412281109780118E-17, 0.08999999999999976075 ) ) ;
#95 = DIRECTION ( 'NONE',  ( 1.000000000000000000, 0.0000000000000000000, -3.491481338843133750E-15 ) ) ;
#96 = CARTESIAN_POINT ( 'NONE',  ( 0.0000000000000000000, 0.0000000000000000000, 0.0000000000000000000 ) ) ;
#97 = AXIS2_PLACEMENT_3D ( 'NONE', #13, #76, #162 ) ;
#98 = APPROVAL_STATUS ( 'not_yet_approved' ) ;
#99 = APPROVAL ( #98, 'UNSPECIFIED' ) ;
#100 = LOCAL_TIME ( 7, 36, 51.00000000000000000, #1 ) ;
#101 = CONICAL_SURFACE ( 'NONE', #43, 1.199999999999998845, 0.7853981633974450594 ) ;
#102 = APPROVAL_DATE_TIME ( #122, #92 ) ;
#103 = MANIFOLD_SOLID_BREP ( 'Corps-Déplacer/Copier1[2]', #41 ) ;
#104 = DATE_AND_TIME ( #174, #2 ) ;
#105 = EDGE_LOOP ( 'NONE', ( #87 ) ) ;
#106 = DIRECTION ( 'NONE',  ( 0.0000000000000000000, 1.000000000000000000, 0.0000000000000000000 ) ) ;
#107 = MANIFOLD_SOLID_BREP ( 'Corps-Déplacer/Copier1[1]', #228 ) ;
#108 = EDGE_LOOP ( 'NONE', ( #177 ) ) ;
#109 = COORDINATED_UNIVERSAL_TIME_OFFSET ( 1, 0, .AHEAD. ) ;
#110 = FACE_OUTER_BOUND ( 'NONE', #236, .T. ) ;
#111 = ORIENTED_EDGE ( 'NONE', *, *, #64, .F. ) ;
#112 = CC_DESIGN_PERSON_AND_ORGANIZATION_ASSIGNMENT ( #141, #173, ( #120 ) ) ;
#113 = CARTESIAN_POINT ( 'NONE',  ( 2.019276906417419153E-14, 0.0000000000000000000, 5.783438920187630394 ) ) ;
#114 = ADVANCED_FACE ( 'NONE', ( #216 ), #132, .T. ) ;
#115 = CARTESIAN_POINT ( 'NONE',  ( 3.142333204958794678E-16, 0.0000000000000000000, 0.08999999999999927502 ) ) ;
#116 = DIRECTION ( 'NONE',  ( -3.491481338843133355E-15, 1.224646799147353207E-16, -1.000000000000000000 ) ) ;
#117 = APPLICATION_PROTOCOL_DEFINITION ( 'international standard', 'config_control_design', 1994, #123 ) ;
#118 = AXIS2_PLACEMENT_3D ( 'NONE', #130, #59, #36 ) ;
#119 = AXIS2_PLACEMENT_3D ( 'NONE', #48, #31, #91 ) ;
#120 = SECURITY_CLASSIFICATION ( '', '', #140 ) ;
#121 = PERSON_AND_ORGANIZATION ( #32, #180 ) ;
#122 = DATE_AND_TIME ( #209, #66 ) ;
#123 = APPLICATION_CONTEXT ( 'configuration controlled 3d designs of mechanical parts and assemblies' ) ;
#124 = EDGE_LOOP ( 'NONE', ( #125 ) ) ;
#125 = ORIENTED_EDGE ( 'NONE', *, *, #21, .T. ) ;
#126 = CIRCLE ( 'NONE', #118, 1.499999999999996225 ) ;
#127 = CALENDAR_DATE ( 2021, 10, 11 ) ;
#128 = CARTESIAN_POINT ( 'NONE',  ( -6.413803915257457113E-31, 2.249659577954772199E-32, -1.836986451539393076E-16 ) ) ;
#129 = DIRECTION ( 'NONE',  ( -3.491481338843133355E-15, 1.224646799147353207E-16, -1.000000000000000000 ) ) ;
#130 = CARTESIAN_POINT ( 'NONE',  ( 2.019276906417419153E-14, 0.0000000000000000000, 5.783438920187630394 ) ) ;
#131 = VERTEX_POINT ( 'NONE', #18 ) ;
#132 = PLANE ( 'NONE',  #51 ) ;
#133 = VERTEX_POINT ( 'NONE', #226 ) ;
#134 = DIRECTION ( 'NONE',  ( 1.000000000000000000, 0.0000000000000000000, -3.491481338843132961E-15 ) ) ;
#135 = EDGE_CURVE ( 'NONE', #131, #131, #230, .T. ) ;
#136 = VERTEX_POINT ( 'NONE', #77 ) ;
#137 = AXIS2_PLACEMENT_3D ( 'NONE', #243, #56, #184 ) ;
#138 = CC_DESIGN_DATE_AND_TIME_ASSIGNMENT ( #104, #86, ( #120 ) ) ;
#139 = APPROVAL_PERSON_ORGANIZATION ( #191, #220, #8 ) ;
#140 = SECURITY_CLASSIFICATION_LEVEL ( 'unclassified' ) ;
#141 = PERSON_AND_ORGANIZATION ( #32, #180 ) ;
#142 = ADVANCED_BREP_SHAPE_REPRESENTATION ( '954089', ( #107, #103, #200 ), #189 ) ;
#143 = EDGE_LOOP ( 'NONE', ( #229 ) ) ;
#144 = AXIS2_PLACEMENT_3D ( 'NONE', #57, #34, #235 ) ;
#145 = PLANE ( 'NONE',  #144 ) ;
#146 = ADVANCED_FACE ( 'NONE', ( #242, #74 ), #101, .T. ) ;
#147 = ORIENTED_EDGE ( 'NONE', *, *, #30, .F. ) ;
#148 = AXIS2_PLACEMENT_3D ( 'NONE', #113, #176, #10 ) ;
#149 = DIRECTION ( 'NONE',  ( 1.000000000000000000, 0.0000000000000000000, -3.614007241618356265E-15 ) ) ;
#150 = CARTESIAN_POINT ( 'NONE',  ( -1.786038389295302186E-30, 0.0000000000000000000, -5.115417256925931626E-16 ) ) ;
#151 = DIRECTION ( 'NONE',  ( 3.491481338843133355E-15, -0.0000000000000000000, 1.000000000000000000 ) ) ;
#152 = CYLINDRICAL_SURFACE ( 'NONE', #217, 1.499999999999996225 ) ;
#153 = PERSON_AND_ORGANIZATION ( #32, #180 ) ;
#154 = FACE_OUTER_BOUND ( 'NONE', #11, .T. ) ;
#155 = CC_DESIGN_PERSON_AND_ORGANIZATION_ASSIGNMENT ( #121, #193, ( #208 ) ) ;
#156 = CC_DESIGN_APPROVAL ( #220, ( #120 ) ) ;
#157 = ADVANCED_FACE ( 'NONE', ( #33, #185 ), #22, .T. ) ;
#158 = PERSON_AND_ORGANIZATION_ROLE ( 'design_supplier' ) ;
#159 = ADVANCED_FACE ( 'NONE', ( #110, #16 ), #166, .T. ) ;
#160 = APPROVAL_DATE_TIME ( #84, #99 ) ;
#161 = EDGE_LOOP ( 'NONE', ( #111 ) ) ;
#162 = DIRECTION ( 'NONE',  ( 1.000000000000000000, 0.0000000000000000000, -3.614007241618356265E-15 ) ) ;
#163 = EDGE_LOOP ( 'NONE', ( #54 ) ) ;
#164 = FACE_OUTER_BOUND ( 'NONE', #105, .T. ) ;
#165 = AXIS2_PLACEMENT_3D ( 'NONE', #17, #129, #202 ) ;
#166 = CYLINDRICAL_SURFACE ( 'NONE', #82, 0.04499999999999990119 ) ;
#167 = FACE_OUTER_BOUND ( 'NONE', #218, .T. ) ;
#168 = VERTEX_POINT ( 'NONE', #223 ) ;
#169 = UNCERTAINTY_MEASURE_WITH_UNIT (LENGTH_MEASURE( 1.000000000000000082E-05 ), #58, 'distance_accuracy_value', 'NONE');
#170 = APPROVAL_ROLE ( '' ) ;
#171 = EDGE_LOOP ( 'NONE', ( #194 ) ) ;
#172 = CC_DESIGN_PERSON_AND_ORGANIZATION_ASSIGNMENT ( #211, #232, ( #186 ) ) ;
#173 = PERSON_AND_ORGANIZATION_ROLE ( 'classification_officer' ) ;
#174 = CALENDAR_DATE ( 2021, 10, 11 ) ;
#175 = ORIENTED_EDGE ( 'NONE', *, *, #62, .T. ) ;
#176 = DIRECTION ( 'NONE',  ( 3.491481338843133355E-15, -0.0000000000000000000, 1.000000000000000000 ) ) ;
#177 = ORIENTED_EDGE ( 'NONE', *, *, #30, .T. ) ;
#178 = DATE_AND_TIME ( #234, #204 ) ;
#179 = CARTESIAN_POINT ( 'NONE',  ( 0.0000000000000000000, 0.0000000000000000000, 0.0000000000000000000 ) ) ;
#180 = ORGANIZATION ( 'UNSPECIFIED', 'UNSPECIFIED', '' ) ;
#181 = FACE_OUTER_BOUND ( 'NONE', #163, .T. ) ;
#182 = CARTESIAN_POINT ( 'NONE',  ( 0.0000000000000000000, 0.0000000000000000000, 0.0000000000000000000 ) ) ;
#183 = DIRECTION ( 'NONE',  ( -3.491481338843133355E-15, 1.224646799147353207E-16, -1.000000000000000000 ) ) ;
#184 = DIRECTION ( 'NONE',  ( 1.000000000000000000, 0.0000000000000000000, -3.491481338843133355E-15 ) ) ;
#185 = FACE_OUTER_BOUND ( 'NONE', #161, .T. ) ;
#186 = PRODUCT_DEFINITION ( 'UNKNOWN', '', #208, #19 ) ;
#187 = DIRECTION ( 'NONE',  ( 3.491481338843133355E-15, -0.0000000000000000000, 1.000000000000000000 ) ) ;
#188 = ORIENTED_EDGE ( 'NONE', *, *, #62, .F. ) ;
#189 =( GEOMETRIC_REPRESENTATION_CONTEXT ( 3 ) GLOBAL_UNCERTAINTY_ASSIGNED_CONTEXT ( ( #169 ) ) GLOBAL_UNIT_ASSIGNED_CONTEXT ( ( #58, #225, #37 ) ) REPRESENTATION_CONTEXT ( 'NONE', 'WORKASPACE' ) );
#190 = ADVANCED_FACE ( 'NONE', ( #227, #154 ), #239, .F. ) ;
#191 = PERSON_AND_ORGANIZATION ( #32, #180 ) ;
#192 = AXIS2_PLACEMENT_3D ( 'NONE', #96, #151, #95 ) ;
#193 = PERSON_AND_ORGANIZATION_ROLE ( 'creator' ) ;
#194 = ORIENTED_EDGE ( 'NONE', *, *, #3, .T. ) ;
#195 = FACE_OUTER_BOUND ( 'NONE', #143, .T. ) ;
#196 = EDGE_LOOP ( 'NONE', ( #50 ) ) ;
#197 = PERSON_AND_ORGANIZATION ( #32, #180 ) ;
#198 = CARTESIAN_POINT ( 'NONE',  ( 1.326762908760390423E-13, -4.653657836759941941E-15, 38.00000000000000000 ) ) ;
#199 = DIRECTION ( 'NONE',  ( -3.491481338843133355E-15, 1.224646799147353207E-16, -1.000000000000000000 ) ) ;
#200 = AXIS2_PLACEMENT_3D ( 'NONE', #182, #20, #78 ) ;
#201 = CARTESIAN_POINT ( 'NONE',  ( 2.121557052721136095E-15, 0.0000000000000000000, 0.6076380902050281252 ) ) ;
#202 = DIRECTION ( 'NONE',  ( 4.275831445896958607E-31, 1.000000000000000000, 1.224646799147353207E-16 ) ) ;
#203 = VERTEX_POINT ( 'NONE', #75 ) ;
#204 = LOCAL_TIME ( 7, 36, 51.00000000000000000, #65 ) ;
#205 = CARTESIAN_POINT ( 'NONE',  ( 1.500000000000016209, 0.0000000000000000000, 5.783438920187625065 ) ) ;
#206 = CIRCLE ( 'NONE', #97, 0.04499999999999990119 ) ;
#207 = CC_DESIGN_PERSON_AND_ORGANIZATION_ASSIGNMENT ( #212, #158, ( #208 ) ) ;
#208 = PRODUCT_DEFINITION_FORMATION_WITH_SPECIFIED_SOURCE ( 'ANY', '', #210, .NOT_KNOWN. ) ;
#209 = CALENDAR_DATE ( 2021, 10, 11 ) ;
#210 = PRODUCT ( '954089', '954089', '', ( #93 ) ) ;
#211 = PERSON_AND_ORGANIZATION ( #32, #180 ) ;
#212 = PERSON_AND_ORGANIZATION ( #32, #180 ) ;
#213 = CIRCLE ( 'NONE', #4, 0.1131483474218599183 ) ;
#214 = EDGE_LOOP ( 'NONE', ( #72 ) ) ;
#215 = DATE_AND_TIME ( #233, #15 ) ;
#216 = FACE_OUTER_BOUND ( 'NONE', #68, .T. ) ;
#217 = AXIS2_PLACEMENT_3D ( 'NONE', #179, #183, #240 ) ;
#218 = EDGE_LOOP ( 'NONE', ( #9 ) ) ;
#219 = DIRECTION ( 'NONE',  ( 0.0000000000000000000, 1.000000000000000000, 0.0000000000000000000 ) ) ;
#220 = APPROVAL ( #7, 'UNSPECIFIED' ) ;
#221 = VERTEX_POINT ( 'NONE', #205 ) ;
#222 = FACE_OUTER_BOUND ( 'NONE', #171, .T. ) ;
#223 = CARTESIAN_POINT ( 'NONE',  ( 0.1131483474218620555, 0.0000000000000000000, 0.6076380902050276811 ) ) ;
#224 = DIRECTION ( 'NONE',  ( 3.491481338843133355E-15, -0.0000000000000000000, 1.000000000000000000 ) ) ;
#225 =( NAMED_UNIT ( * ) PLANE_ANGLE_UNIT ( ) SI_UNIT ( $, .RADIAN. ) );
#226 = CARTESIAN_POINT ( 'NONE',  ( 1.316288464743861212E-13, 1.499999999999994005, 37.69999999999999574 ) ) ;
#227 = FACE_OUTER_BOUND ( 'NONE', #124, .T. ) ;
#228 = CLOSED_SHELL ( 'NONE', ( #46, #146, #81, #190, #157, #40 ) ) ;
#229 = ORIENTED_EDGE ( 'NONE', *, *, #64, .T. ) ;
#230 = CIRCLE ( 'NONE', #63, 1.199999999999998845 ) ;
#231 = EDGE_CURVE ( 'NONE', #136, #136, #25, .T. ) ;
#232 = PERSON_AND_ORGANIZATION_ROLE ( 'creator' ) ;
#233 = CALENDAR_DATE ( 2021, 10, 11 ) ;
#234 = CALENDAR_DATE ( 2021, 10, 11 ) ;
#235 = DIRECTION ( 'NONE',  ( -4.275831445896958607E-31, -1.000000000000000000, -1.224646799147353207E-16 ) ) ;
#236 = EDGE_LOOP ( 'NONE', ( #28 ) ) ;
#237 = PLANE ( 'NONE',  #165 ) ;
#238 = PRODUCT_RELATED_PRODUCT_CATEGORY ( 'detail', '', ( #210 ) ) ;
#239 = TOROIDAL_SURFACE ( 'NONE', #137, 2.044999999999999929, 2.000000000000000000 ) ;
#240 = DIRECTION ( 'NONE',  ( 4.275831445896958607E-31, 1.000000000000000000, 1.224646799147353207E-16 ) ) ;
#241 = CARTESIAN_POINT ( 'NONE',  ( 0.04500000000000021344, 0.0000000000000000000, 0.08999999999999910849 ) ) ;
#242 = FACE_OUTER_BOUND ( 'NONE', #214, .T. ) ;
#243 = CARTESIAN_POINT ( 'NONE',  ( 3.142333204958803059E-16, 0.0000000000000000000, 0.08999999999999951095 ) ) ;
ENDSEC;
END-ISO-10303-21;
