ISO-10303-21;
HEADER;
FILE_DESCRIPTION (( 'STEP AP203' ),
    '1' );
FILE_NAME ('954087.step',
    '2021-11-10T06:36:50',
    ( '' ),
    ( '' ),
    'SwSTEP 2.0',
    'SolidWorks 2019',
    '' );
FILE_SCHEMA (( 'CONFIG_CONTROL_DESIGN' ));
ENDSEC;

DATA;
#1 = ADVANCED_FACE ( 'NONE', ( #236 ), #94, .F. ) ;
#2 = PLANE ( 'NONE',  #175 ) ;
#3 = CARTESIAN_POINT ( 'NONE',  ( 1.316288464743861212E-13, -4.616918432785521081E-15, 37.69999999999999574 ) ) ;
#4 = AXIS2_PLACEMENT_3D ( 'NONE', #227, #208, #146 ) ;
#5 = CARTESIAN_POINT ( 'NONE',  ( 0.1031483474218619495, 0.0000000000000000000, 0.5876380902050277744 ) ) ;
#6 = PRODUCT ( '954087', '954087', '', ( #107 ) ) ;
#7 = DATE_AND_TIME ( #85, #87 ) ;
#8 = APPLICATION_PROTOCOL_DEFINITION ( 'international standard', 'config_control_design', 1994, #240 ) ;
#9 = CIRCLE ( 'NONE', #209, 0.1031483474218598956 ) ;
#10 = APPROVAL_ROLE ( '' ) ;
#11 = COORDINATED_UNIVERSAL_TIME_OFFSET ( 1, 0, .AHEAD. ) ;
#12 = ORIENTED_EDGE ( 'NONE', *, *, #110, .T. ) ;
#13 = CARTESIAN_POINT ( 'NONE',  ( 1.326762908760390423E-13, 8.998558695971069014E-33, 38.00000000000000000 ) ) ;
#14 = APPLICATION_CONTEXT ( 'configuration controlled 3d designs of mechanical parts and assemblies' ) ;
#15 = EDGE_LOOP ( 'NONE', ( #12 ) ) ;
#16 = AXIS2_PLACEMENT_3D ( 'NONE', #73, #56, #147 ) ;
#17 = DIRECTION ( 'NONE',  ( 3.491481338843133355E-15, -1.224646799147353207E-16, 1.000000000000000000 ) ) ;
#18 = ADVANCED_FACE ( 'NONE', ( #160 ), #143, .T. ) ;
#19 = EDGE_LOOP ( 'NONE', ( #88 ) ) ;
#20 = VERTEX_POINT ( 'NONE', #243 ) ;
#21 = PRODUCT_DEFINITION ( 'UNKNOWN', '', #199, #154 ) ;
#22 = DIRECTION ( 'NONE',  ( 4.275831445896958607E-31, 1.000000000000000000, 1.224646799147353207E-16 ) ) ;
#23 = VERTEX_POINT ( 'NONE', #186 ) ;
#24 = CARTESIAN_POINT ( 'NONE',  ( 2.444036937190185855E-16, -8.854317741964954932E-18, 0.06999999999999978462 ) ) ;
#25 = AXIS2_PLACEMENT_3D ( 'NONE', #242, #170, #228 ) ;
#26 = APPROVAL_STATUS ( 'not_yet_approved' ) ;
#27 = CC_DESIGN_DATE_AND_TIME_ASSIGNMENT ( #103, #50, ( #195 ) ) ;
#28 = CALENDAR_DATE ( 2021, 10, 11 ) ;
#29 = MANIFOLD_SOLID_BREP ( 'Corps-Déplacer/Copier1[2]', #128 ) ;
#30 = APPROVAL_DATE_TIME ( #216, #47 ) ;
#31 = APPROVAL_PERSON_ORGANIZATION ( #120, #47, #49 ) ;
#32 = CC_DESIGN_PERSON_AND_ORGANIZATION_ASSIGNMENT ( #196, #191, ( #199 ) ) ;
#33 = COORDINATED_UNIVERSAL_TIME_OFFSET ( 1, 0, .AHEAD. ) ;
#34 = AXIS2_PLACEMENT_3D ( 'NONE', #13, #54, #182 ) ;
#35 = APPROVAL_STATUS ( 'not_yet_approved' ) ;
#36 = EDGE_LOOP ( 'NONE', ( #109 ) ) ;
#37 = DIRECTION ( 'NONE',  ( 1.000000000000000000, 0.0000000000000000000, -3.484935554417704882E-15 ) ) ;
#38 = EDGE_LOOP ( 'NONE', ( #126 ) ) ;
#39 = EDGE_CURVE ( 'NONE', #207, #207, #183, .T. ) ;
#40 = LOCAL_TIME ( 7, 36, 50.00000000000000000, #33 ) ;
#41 = ORIENTED_EDGE ( 'NONE', *, *, #43, .T. ) ;
#42 = CARTESIAN_POINT ( 'NONE',  ( 0.0000000000000000000, 0.0000000000000000000, 0.0000000000000000000 ) ) ;
#43 = EDGE_CURVE ( 'NONE', #23, #23, #237, .T. ) ;
#44 = FACE_OUTER_BOUND ( 'NONE', #112, .T. ) ;
#45 = CARTESIAN_POINT ( 'NONE',  ( 2.025324329489974478E-14, 0.0000000000000000000, 5.800759428263320139 ) ) ;
#46 = CARTESIAN_POINT ( 'NONE',  ( 2.025324329489974478E-14, 0.0000000000000000000, 5.800759428263320139 ) ) ;
#47 = APPROVAL ( #35, 'UNSPECIFIED' ) ;
#48 = CARTESIAN_POINT ( 'NONE',  ( 0.0000000000000000000, 0.0000000000000000000, 0.0000000000000000000 ) ) ;
#49 = APPROVAL_ROLE ( '' ) ;
#50 = DATE_TIME_ROLE ( 'classification_date' ) ;
#51 = APPROVAL ( #104, 'UNSPECIFIED' ) ;
#52 = CC_DESIGN_SECURITY_CLASSIFICATION ( #195, ( #199 ) ) ;
#53 = ORIENTED_EDGE ( 'NONE', *, *, #174, .T. ) ;
#54 = DIRECTION ( 'NONE',  ( -3.491481338843133355E-15, 1.224646799147353207E-16, -1.000000000000000000 ) ) ;
#55 = DIRECTION ( 'NONE',  ( 1.000000000000000000, 0.0000000000000000000, -3.469446951953622866E-15 ) ) ;
#56 = DIRECTION ( 'NONE',  ( 3.491481338843133355E-15, -0.0000000000000000000, 1.000000000000000000 ) ) ;
#57 = FACE_OUTER_BOUND ( 'NONE', #111, .T. ) ;
#58 = AXIS2_PLACEMENT_3D ( 'NONE', #42, #188, #22 ) ;
#59 = FACE_OUTER_BOUND ( 'NONE', #15, .T. ) ;
#60 = VERTEX_POINT ( 'NONE', #76 ) ;
#61 = TOROIDAL_SURFACE ( 'NONE', #122, 2.034999999999999698, 2.000000000000000000 ) ;
#62 = CC_DESIGN_PERSON_AND_ORGANIZATION_ASSIGNMENT ( #192, #64, ( #21 ) ) ;
#63 = PERSON_AND_ORGANIZATION ( #142, #163 ) ;
#64 = PERSON_AND_ORGANIZATION_ROLE ( 'creator' ) ;
#65 = APPROVAL_DATE_TIME ( #177, #51 ) ;
#66 = CC_DESIGN_APPROVAL ( #51, ( #195 ) ) ;
#67 = ADVANCED_FACE ( 'NONE', ( #239, #204 ), #164, .T. ) ;
#68 = EDGE_LOOP ( 'NONE', ( #41 ) ) ;
#69 = EDGE_LOOP ( 'NONE', ( #89 ) ) ;
#70 = CIRCLE ( 'NONE', #205, 1.499999999999998446 ) ;
#71 = ADVANCED_FACE ( 'NONE', ( #167 ), #226, .F. ) ;
#72 = SHAPE_DEFINITION_REPRESENTATION ( #149, #201 ) ;
#73 = CARTESIAN_POINT ( 'NONE',  ( -1.786038389295302186E-30, 0.0000000000000000000, -5.115417256925931626E-16 ) ) ;
#74 = CC_DESIGN_APPROVAL ( #47, ( #21 ) ) ;
#75 = DIRECTION ( 'NONE',  ( 3.491481338843133355E-15, -0.0000000000000000000, 1.000000000000000000 ) ) ;
#76 = CARTESIAN_POINT ( 'NONE',  ( 0.03500000000000009354, 0.0000000000000000000, -1.222018468595099830E-16 ) ) ;
#77 = DIRECTION ( 'NONE',  ( 1.000000000000000000, 0.0000000000000000000, -3.491481338843133355E-15 ) ) ;
#78 = DIRECTION ( 'NONE',  ( 3.491481338843133355E-15, -1.224646799147353207E-16, 1.000000000000000000 ) ) ;
#79 = ADVANCED_FACE ( 'NONE', ( #117 ), #2, .F. ) ;
#80 = VERTEX_POINT ( 'NONE', #151 ) ;
#81 = SECURITY_CLASSIFICATION_LEVEL ( 'unclassified' ) ;
#82 = APPROVAL_PERSON_ORGANIZATION ( #232, #223, #84 ) ;
#83 = COORDINATED_UNIVERSAL_TIME_OFFSET ( 1, 0, .AHEAD. ) ;
#84 = APPROVAL_ROLE ( '' ) ;
#85 = CALENDAR_DATE ( 2021, 10, 11 ) ;
#86 = CC_DESIGN_PERSON_AND_ORGANIZATION_ASSIGNMENT ( #197, #102, ( #6 ) ) ;
#87 = LOCAL_TIME ( 7, 36, 50.00000000000000000, #11 ) ;
#88 = ORIENTED_EDGE ( 'NONE', *, *, #152, .F. ) ;
#89 = ORIENTED_EDGE ( 'NONE', *, *, #123, .F. ) ;
#90 = CC_DESIGN_DATE_AND_TIME_ASSIGNMENT ( #7, #173, ( #21 ) ) ;
#91 = ORIENTED_EDGE ( 'NONE', *, *, #174, .F. ) ;
#92 = APPROVAL_PERSON_ORGANIZATION ( #233, #51, #10 ) ;
#93 = DIRECTION ( 'NONE',  ( -4.275831445896958607E-31, -1.000000000000000000, -1.224646799147353207E-16 ) ) ;
#94 = PLANE ( 'NONE',  #34 ) ;
#95 = CARTESIAN_POINT ( 'NONE',  ( 2.444036937190177473E-16, 0.0000000000000000000, 0.06999999999999954869 ) ) ;
#96 = CC_DESIGN_APPROVAL ( #223, ( #199 ) ) ;
#97 = CARTESIAN_POINT ( 'NONE',  ( 1.500000000000016209, 0.0000000000000000000, 5.800759428263314810 ) ) ;
#98 = FACE_BOUND ( 'NONE', #200, .T. ) ;
#99 = VERTEX_POINT ( 'NONE', #97 ) ;
#100 = DIRECTION ( 'NONE',  ( -3.491481338843133355E-15, 1.224646799147353207E-16, -1.000000000000000000 ) ) ;
#101 = CONICAL_SURFACE ( 'NONE', #114, 1.199999999999998845, 0.7853981633974450594 ) ;
#102 = PERSON_AND_ORGANIZATION_ROLE ( 'design_owner' ) ;
#103 = DATE_AND_TIME ( #28, #40 ) ;
#104 = APPROVAL_STATUS ( 'not_yet_approved' ) ;
#105 = AXIS2_PLACEMENT_3D ( 'NONE', #48, #189, #130 ) ;
#106 = CALENDAR_DATE ( 2021, 10, 11 ) ;
#107 = MECHANICAL_CONTEXT ( 'NONE', #14, 'mechanical' ) ;
#108 = AXIS2_PLACEMENT_3D ( 'NONE', #202, #234, #221 ) ;
#109 = ORIENTED_EDGE ( 'NONE', *, *, #39, .T. ) ;
#110 = EDGE_CURVE ( 'NONE', #20, #20, #70, .T. ) ;
#111 = EDGE_LOOP ( 'NONE', ( #184 ) ) ;
#112 = EDGE_LOOP ( 'NONE', ( #125 ) ) ;
#113 = MANIFOLD_SOLID_BREP ( 'Corps-Déplacer/Copier1[1]', #158 ) ;
#114 = AXIS2_PLACEMENT_3D ( 'NONE', #211, #100, #131 ) ;
#115 = EDGE_LOOP ( 'NONE', ( #141 ) ) ;
#116 = ADVANCED_FACE ( 'NONE', ( #44, #136 ), #61, .F. ) ;
#117 = FACE_OUTER_BOUND ( 'NONE', #161, .T. ) ;
#118 = DIRECTION ( 'NONE',  ( -4.275831445896958607E-31, -1.000000000000000000, -1.224646799147353207E-16 ) ) ;
#119 = CYLINDRICAL_SURFACE ( 'NONE', #58, 1.499999999999996225 ) ;
#120 = PERSON_AND_ORGANIZATION ( #142, #163 ) ;
#121 =( NAMED_UNIT ( * ) PLANE_ANGLE_UNIT ( ) SI_UNIT ( $, .RADIAN. ) );
#122 = AXIS2_PLACEMENT_3D ( 'NONE', #95, #150, #77 ) ;
#123 = EDGE_CURVE ( 'NONE', #99, #99, #134, .T. ) ;
#124 = CIRCLE ( 'NONE', #4, 0.03499999999999987843 ) ;
#125 = ORIENTED_EDGE ( 'NONE', *, *, #198, .T. ) ;
#126 = ORIENTED_EDGE ( 'NONE', *, *, #123, .T. ) ;
#127 = CARTESIAN_POINT ( 'NONE',  ( 2.444036937190169091E-16, 0.0000000000000000000, 0.06999999999999929889 ) ) ;
#128 = CLOSED_SHELL ( 'NONE', ( #18, #67, #71 ) ) ;
#129 = ORIENTED_EDGE ( 'NONE', *, *, #152, .T. ) ;
#130 = DIRECTION ( 'NONE',  ( 1.000000000000000000, 0.0000000000000000000, -3.491481338843132961E-15 ) ) ;
#131 = DIRECTION ( 'NONE',  ( 0.0000000000000000000, 1.000000000000000000, 0.0000000000000000000 ) ) ;
#132 = ADVANCED_FACE ( 'NONE', ( #59, #224 ), #119, .T. ) ;
#133 = FACE_OUTER_BOUND ( 'NONE', #69, .T. ) ;
#134 = CIRCLE ( 'NONE', #217, 1.499999999999996225 ) ;
#135 = DIRECTION ( 'NONE',  ( 3.491481338843133355E-15, -0.0000000000000000000, 1.000000000000000000 ) ) ;
#136 = FACE_OUTER_BOUND ( 'NONE', #19, .T. ) ;
#137 = PERSON_AND_ORGANIZATION ( #142, #163 ) ;
#138 = ADVANCED_FACE ( 'NONE', ( #98, #133 ), #179, .T. ) ;
#139 =( GEOMETRIC_REPRESENTATION_CONTEXT ( 3 ) GLOBAL_UNCERTAINTY_ASSIGNED_CONTEXT ( ( #229 ) ) GLOBAL_UNIT_ASSIGNED_CONTEXT ( ( #140, #121, #218 ) ) REPRESENTATION_CONTEXT ( 'NONE', 'WORKASPACE' ) );
#140 =( LENGTH_UNIT ( ) NAMED_UNIT ( * ) SI_UNIT ( .MILLI., .METRE. ) );
#141 = ORIENTED_EDGE ( 'NONE', *, *, #43, .F. ) ;
#142 = PERSON ( 'UNSPECIFIED', 'UNSPECIFIED', 'UNSPECIFIED', ('UNSPECIFIED'), ('UNSPECIFIED'), ('UNSPECIFIED') ) ;
#143 = PLANE ( 'NONE',  #169 ) ;
#144 = ORIENTED_EDGE ( 'NONE', *, *, #198, .F. ) ;
#145 = CIRCLE ( 'NONE', #105, 0.03500000000000009354 ) ;
#146 = DIRECTION ( 'NONE',  ( 1.000000000000000000, 0.0000000000000000000, -3.484935554417704882E-15 ) ) ;
#147 = DIRECTION ( 'NONE',  ( 1.000000000000000000, 0.0000000000000000000, -3.491481338843134144E-15 ) ) ;
#148 = DIRECTION ( 'NONE',  ( 3.491481338843133355E-15, -0.0000000000000000000, 1.000000000000000000 ) ) ;
#149 = PRODUCT_DEFINITION_SHAPE ( 'NONE', 'NONE',  #21 ) ;
#150 = DIRECTION ( 'NONE',  ( 3.491481338843133355E-15, -0.0000000000000000000, 1.000000000000000000 ) ) ;
#151 = CARTESIAN_POINT ( 'NONE',  ( 0.03500000000000012129, 0.0000000000000000000, 0.06999999999999917399 ) ) ;
#152 = EDGE_CURVE ( 'NONE', #166, #166, #9, .T. ) ;
#153 = APPROVAL_DATE_TIME ( #219, #223 ) ;
#154 = DESIGN_CONTEXT ( 'detailed design', #240, 'design' ) ;
#155 = DIRECTION ( 'NONE',  ( 1.000000000000000000, 0.0000000000000000000, 0.0000000000000000000 ) ) ;
#156 = CARTESIAN_POINT ( 'NONE',  ( 0.0000000000000000000, 0.0000000000000000000, 0.0000000000000000000 ) ) ;
#157 = CALENDAR_DATE ( 2021, 10, 11 ) ;
#158 = CLOSED_SHELL ( 'NONE', ( #132, #171, #1, #116, #138, #79 ) ) ;
#159 = ORIENTED_EDGE ( 'NONE', *, *, #39, .F. ) ;
#160 = FACE_OUTER_BOUND ( 'NONE', #68, .T. ) ;
#161 = EDGE_LOOP ( 'NONE', ( #144 ) ) ;
#162 = LOCAL_TIME ( 7, 36, 50.00000000000000000, #178 ) ;
#163 = ORGANIZATION ( 'UNSPECIFIED', 'UNSPECIFIED', '' ) ;
#164 = CYLINDRICAL_SURFACE ( 'NONE', #16, 0.03499999999999998251 ) ;
#165 = CARTESIAN_POINT ( 'NONE',  ( 2.051727425944273586E-15, 0.0000000000000000000, 0.5876380902050281074 ) ) ;
#166 = VERTEX_POINT ( 'NONE', #5 ) ;
#167 = FACE_OUTER_BOUND ( 'NONE', #206, .T. ) ;
#168 = DIRECTION ( 'NONE',  ( 1.000000000000000000, 0.0000000000000000000, -3.153328772349481917E-15 ) ) ;
#169 = AXIS2_PLACEMENT_3D ( 'NONE', #220, #17, #93 ) ;
#170 = DIRECTION ( 'NONE',  ( 3.491481338843133355E-15, -1.224646799147353207E-16, 1.000000000000000000 ) ) ;
#171 = ADVANCED_FACE ( 'NONE', ( #57, #213 ), #101, .T. ) ;
#172 = PERSON_AND_ORGANIZATION_ROLE ( 'design_supplier' ) ;
#173 = DATE_TIME_ROLE ( 'creation_date' ) ;
#174 = EDGE_CURVE ( 'NONE', #60, #60, #145, .T. ) ;
#175 = AXIS2_PLACEMENT_3D ( 'NONE', #24, #78, #118 ) ;
#176 = COORDINATED_UNIVERSAL_TIME_OFFSET ( 1, 0, .AHEAD. ) ;
#177 = DATE_AND_TIME ( #106, #231 ) ;
#178 = COORDINATED_UNIVERSAL_TIME_OFFSET ( 1, 0, .AHEAD. ) ;
#179 = CONICAL_SURFACE ( 'NONE', #222, 1.499999999999996225, 0.2617993877991428575 ) ;
#180 = EDGE_LOOP ( 'NONE', ( #53 ) ) ;
#181 = EDGE_LOOP ( 'NONE', ( #159 ) ) ;
#182 = DIRECTION ( 'NONE',  ( 4.275831445896958607E-31, 1.000000000000000000, 1.224646799147353207E-16 ) ) ;
#183 = CIRCLE ( 'NONE', #108, 1.199999999999998845 ) ;
#184 = ORIENTED_EDGE ( 'NONE', *, *, #110, .F. ) ;
#185 = DIRECTION ( 'NONE',  ( -3.491481338843133355E-15, 1.224646799147353207E-16, -1.000000000000000000 ) ) ;
#186 = CARTESIAN_POINT ( 'NONE',  ( 0.03500000000000012129, 0.0000000000000000000, 0.06999999999999917399 ) ) ;
#187 = AXIS2_PLACEMENT_3D ( 'NONE', #127, #238, #37 ) ;
#188 = DIRECTION ( 'NONE',  ( -3.491481338843133355E-15, 1.224646799147353207E-16, -1.000000000000000000 ) ) ;
#189 = DIRECTION ( 'NONE',  ( 3.491481338843133355E-15, -0.0000000000000000000, 1.000000000000000000 ) ) ;
#190 = DIRECTION ( 'NONE',  ( 1.000000000000000000, 0.0000000000000000000, -3.469446951953622866E-15 ) ) ;
#191 = PERSON_AND_ORGANIZATION_ROLE ( 'creator' ) ;
#192 = PERSON_AND_ORGANIZATION ( #142, #163 ) ;
#193 = CC_DESIGN_PERSON_AND_ORGANIZATION_ASSIGNMENT ( #137, #172, ( #199 ) ) ;
#194 = APPLICATION_PROTOCOL_DEFINITION ( 'international standard', 'config_control_design', 1994, #14 ) ;
#195 = SECURITY_CLASSIFICATION ( '', '', #81 ) ;
#196 = PERSON_AND_ORGANIZATION ( #142, #163 ) ;
#197 = PERSON_AND_ORGANIZATION ( #142, #163 ) ;
#198 = EDGE_CURVE ( 'NONE', #80, #80, #124, .T. ) ;
#199 = PRODUCT_DEFINITION_FORMATION_WITH_SPECIFIED_SOURCE ( 'ANY', '', #6, .NOT_KNOWN. ) ;
#200 = EDGE_LOOP ( 'NONE', ( #129 ) ) ;
#201 = ADVANCED_BREP_SHAPE_REPRESENTATION ( '954087', ( #113, #29, #235 ), #139 ) ;
#202 = CARTESIAN_POINT ( 'NONE',  ( 1.326762908760390423E-13, -4.653657836759941941E-15, 38.00000000000000000 ) ) ;
#203 = PRODUCT_RELATED_PRODUCT_CATEGORY ( 'detail', '', ( #6 ) ) ;
#204 = FACE_OUTER_BOUND ( 'NONE', #115, .T. ) ;
#205 = AXIS2_PLACEMENT_3D ( 'NONE', #3, #185, #212 ) ;
#206 = EDGE_LOOP ( 'NONE', ( #91 ) ) ;
#207 = VERTEX_POINT ( 'NONE', #225 ) ;
#208 = DIRECTION ( 'NONE',  ( 3.491481338843133355E-15, -0.0000000000000000000, 1.000000000000000000 ) ) ;
#209 = AXIS2_PLACEMENT_3D ( 'NONE', #165, #135, #168 ) ;
#210 = LOCAL_TIME ( 7, 36, 50.00000000000000000, #176 ) ;
#211 = CARTESIAN_POINT ( 'NONE',  ( 1.326762908760390423E-13, -4.653657836759941941E-15, 38.00000000000000000 ) ) ;
#212 = DIRECTION ( 'NONE',  ( 0.0000000000000000000, 1.000000000000000000, 0.0000000000000000000 ) ) ;
#213 = FACE_BOUND ( 'NONE', #36, .T. ) ;
#214 = DIRECTION ( 'NONE',  ( 0.0000000000000000000, 0.0000000000000000000, 1.000000000000000000 ) ) ;
#215 = CALENDAR_DATE ( 2021, 10, 11 ) ;
#216 = DATE_AND_TIME ( #215, #162 ) ;
#217 = AXIS2_PLACEMENT_3D ( 'NONE', #45, #148, #190 ) ;
#218 =( NAMED_UNIT ( * ) SI_UNIT ( $, .STERADIAN. ) SOLID_ANGLE_UNIT ( ) );
#219 = DATE_AND_TIME ( #157, #210 ) ;
#220 = CARTESIAN_POINT ( 'NONE',  ( 2.444036937190185855E-16, -8.854317741964954932E-18, 0.06999999999999978462 ) ) ;
#221 = DIRECTION ( 'NONE',  ( 0.0000000000000000000, 1.000000000000000000, 0.0000000000000000000 ) ) ;
#222 = AXIS2_PLACEMENT_3D ( 'NONE', #46, #75, #55 ) ;
#223 = APPROVAL ( #26, 'UNSPECIFIED' ) ;
#224 = FACE_OUTER_BOUND ( 'NONE', #38, .T. ) ;
#225 = CARTESIAN_POINT ( 'NONE',  ( 1.326762908760390423E-13, 1.199999999999994182, 38.00000000000000000 ) ) ;
#226 = PLANE ( 'NONE',  #25 ) ;
#227 = CARTESIAN_POINT ( 'NONE',  ( 2.444036937190169091E-16, 0.0000000000000000000, 0.06999999999999929889 ) ) ;
#228 = DIRECTION ( 'NONE',  ( -4.275831445896958607E-31, -1.000000000000000000, -1.224646799147353207E-16 ) ) ;
#229 = UNCERTAINTY_MEASURE_WITH_UNIT (LENGTH_MEASURE( 1.000000000000000082E-05 ), #140, 'distance_accuracy_value', 'NONE');
#230 = PERSON_AND_ORGANIZATION_ROLE ( 'classification_officer' ) ;
#231 = LOCAL_TIME ( 7, 36, 50.00000000000000000, #83 ) ;
#232 = PERSON_AND_ORGANIZATION ( #142, #163 ) ;
#233 = PERSON_AND_ORGANIZATION ( #142, #163 ) ;
#234 = DIRECTION ( 'NONE',  ( -3.491481338843133355E-15, 1.224646799147353207E-16, -1.000000000000000000 ) ) ;
#235 = AXIS2_PLACEMENT_3D ( 'NONE', #156, #214, #155 ) ;
#236 = FACE_OUTER_BOUND ( 'NONE', #181, .T. ) ;
#237 = CIRCLE ( 'NONE', #187, 0.03499999999999987843 ) ;
#238 = DIRECTION ( 'NONE',  ( 3.491481338843133355E-15, -0.0000000000000000000, 1.000000000000000000 ) ) ;
#239 = FACE_OUTER_BOUND ( 'NONE', #180, .T. ) ;
#240 = APPLICATION_CONTEXT ( 'configuration controlled 3d designs of mechanical parts and assemblies' ) ;
#241 = CC_DESIGN_PERSON_AND_ORGANIZATION_ASSIGNMENT ( #63, #230, ( #195 ) ) ;
#242 = CARTESIAN_POINT ( 'NONE',  ( -6.413803915257457113E-31, 2.249659577954772199E-32, -1.836986451539393076E-16 ) ) ;
#243 = CARTESIAN_POINT ( 'NONE',  ( 1.316288464743861212E-13, 1.499999999999994005, 37.69999999999999574 ) ) ;
ENDSEC;
END-ISO-10303-21;
