ISO-10303-21;
HEADER;
FILE_DESCRIPTION (( 'STEP AP203' ),
    '1' );
FILE_NAME ('954086.step',
    '2021-11-10T06:36:50',
    ( '' ),
    ( '' ),
    'SwSTEP 2.0',
    'SolidWorks 2019',
    '' );
FILE_SCHEMA (( 'CONFIG_CONTROL_DESIGN' ));
ENDSEC;

DATA;
#1 = EDGE_LOOP ( 'NONE', ( #92 ) ) ;
#2 = CALENDAR_DATE ( 2021, 10, 11 ) ;
#3 = PRODUCT ( '954086', '954086', '', ( #157 ) ) ;
#4 = DIRECTION ( 'NONE',  ( 1.000000000000000000, 0.0000000000000000000, 0.0000000000000000000 ) ) ;
#5 = DATE_AND_TIME ( #91, #73 ) ;
#6 = DATE_TIME_ROLE ( 'classification_date' ) ;
#7 = DIRECTION ( 'NONE',  ( 1.000000000000000000, 0.0000000000000000000, -3.491481338843133750E-15 ) ) ;
#8 = AXIS2_PLACEMENT_3D ( 'NONE', #242, #223, #220 ) ;
#9 = TOROIDAL_SURFACE ( 'NONE', #235, 2.040000000000000036, 2.000000000000000000 ) ;
#10 = FACE_OUTER_BOUND ( 'NONE', #1, .T. ) ;
#11 = ORIENTED_EDGE ( 'NONE', *, *, #239, .F. ) ;
#12 = CC_DESIGN_PERSON_AND_ORGANIZATION_ASSIGNMENT ( #208, #226, ( #58 ) ) ;
#13 = FACE_OUTER_BOUND ( 'NONE', #112, .T. ) ;
#14 = DIRECTION ( 'NONE',  ( 4.275831445896958607E-31, 1.000000000000000000, 1.224646799147353207E-16 ) ) ;
#15 = FACE_OUTER_BOUND ( 'NONE', #23, .T. ) ;
#16 = ADVANCED_FACE ( 'NONE', ( #200, #186 ), #165, .T. ) ;
#17 = PERSON_AND_ORGANIZATION ( #178, #164 ) ;
#18 = EDGE_CURVE ( 'NONE', #218, #218, #230, .T. ) ;
#19 = ORIENTED_EDGE ( 'NONE', *, *, #85, .F. ) ;
#20 = COORDINATED_UNIVERSAL_TIME_OFFSET ( 1, 0, .AHEAD. ) ;
#21 = COORDINATED_UNIVERSAL_TIME_OFFSET ( 1, 0, .AHEAD. ) ;
#22 = FACE_BOUND ( 'NONE', #131, .T. ) ;
#23 = EDGE_LOOP ( 'NONE', ( #88 ) ) ;
#24 = DIRECTION ( 'NONE',  ( -4.275831445896958607E-31, -1.000000000000000000, -1.224646799147353207E-16 ) ) ;
#25 = CARTESIAN_POINT ( 'NONE',  ( 1.316288464743861212E-13, 1.499999999999994005, 37.69999999999999574 ) ) ;
#26 = AXIS2_PLACEMENT_3D ( 'NONE', #62, #147, #46 ) ;
#27 = DIRECTION ( 'NONE',  ( 0.0000000000000000000, 1.000000000000000000, 0.0000000000000000000 ) ) ;
#28 = ADVANCED_FACE ( 'NONE', ( #129, #31 ), #243, .T. ) ;
#29 = DIRECTION ( 'NONE',  ( 3.491481338843133355E-15, -0.0000000000000000000, 1.000000000000000000 ) ) ;
#30 = FACE_OUTER_BOUND ( 'NONE', #172, .T. ) ;
#31 = FACE_BOUND ( 'NONE', #167, .T. ) ;
#32 = CARTESIAN_POINT ( 'NONE',  ( 1.326762908760390423E-13, -4.653657836759941941E-15, 38.00000000000000000 ) ) ;
#33 = ORIENTED_EDGE ( 'NONE', *, *, #18, .F. ) ;
#34 = ADVANCED_FACE ( 'NONE', ( #15 ), #83, .F. ) ;
#35 = MANIFOLD_SOLID_BREP ( 'Corps-Déplacer/Copier1[1]', #108 ) ;
#36 = PERSON_AND_ORGANIZATION ( #178, #164 ) ;
#37 = DESIGN_CONTEXT ( 'detailed design', #98, 'design' ) ;
#38 = PERSON_AND_ORGANIZATION_ROLE ( 'classification_officer' ) ;
#39 = PERSON_AND_ORGANIZATION ( #178, #164 ) ;
#40 = EDGE_LOOP ( 'NONE', ( #11 ) ) ;
#41 = DIRECTION ( 'NONE',  ( 3.491481338843133355E-15, -0.0000000000000000000, 1.000000000000000000 ) ) ;
#42 = PRODUCT_RELATED_PRODUCT_CATEGORY ( 'detail', '', ( #3 ) ) ;
#43 = DIRECTION ( 'NONE',  ( 3.491481338843133355E-15, -0.0000000000000000000, 1.000000000000000000 ) ) ;
#44 = VERTEX_POINT ( 'NONE', #59 ) ;
#45 = FACE_OUTER_BOUND ( 'NONE', #103, .T. ) ;
#46 = DIRECTION ( 'NONE',  ( 1.000000000000000000, 0.0000000000000000000, -3.491481338843132961E-15 ) ) ;
#47 = DIRECTION ( 'NONE',  ( -4.275831445896958607E-31, -1.000000000000000000, -1.224646799147353207E-16 ) ) ;
#48 = FACE_OUTER_BOUND ( 'NONE', #40, .T. ) ;
#49 = EDGE_LOOP ( 'NONE', ( #84 ) ) ;
#50 = CONICAL_SURFACE ( 'NONE', #152, 1.499999999999996225, 0.2617993877991428575 ) ;
#51 = APPROVAL ( #189, 'UNSPECIFIED' ) ;
#52 = CALENDAR_DATE ( 2021, 10, 11 ) ;
#53 = COORDINATED_UNIVERSAL_TIME_OFFSET ( 1, 0, .AHEAD. ) ;
#54 = ADVANCED_FACE ( 'NONE', ( #30 ), #110, .F. ) ;
#55 = PERSON_AND_ORGANIZATION ( #178, #164 ) ;
#56 = DATE_AND_TIME ( #52, #105 ) ;
#57 = AXIS2_PLACEMENT_3D ( 'NONE', #185, #184, #27 ) ;
#58 = PRODUCT_DEFINITION ( 'UNKNOWN', '', #97, #37 ) ;
#59 = CARTESIAN_POINT ( 'NONE',  ( 1.326762908760390423E-13, 1.199999999999994182, 38.00000000000000000 ) ) ;
#60 = DIRECTION ( 'NONE',  ( 3.491481338843133355E-15, -0.0000000000000000000, 1.000000000000000000 ) ) ;
#61 = VERTEX_POINT ( 'NONE', #25 ) ;
#62 = CARTESIAN_POINT ( 'NONE',  ( 0.0000000000000000000, 0.0000000000000000000, 0.0000000000000000000 ) ) ;
#63 = DIRECTION ( 'NONE',  ( -4.275831445896958607E-31, -1.000000000000000000, -1.224646799147353207E-16 ) ) ;
#64 = EDGE_LOOP ( 'NONE', ( #19 ) ) ;
#65 = CC_DESIGN_APPROVAL ( #51, ( #58 ) ) ;
#66 = DIRECTION ( 'NONE',  ( 3.491481338843133355E-15, -1.224646799147353207E-16, 1.000000000000000000 ) ) ;
#67 = AXIS2_PLACEMENT_3D ( 'NONE', #32, #86, #166 ) ;
#68 = CC_DESIGN_DATE_AND_TIME_ASSIGNMENT ( #77, #6, ( #149 ) ) ;
#69 = LOCAL_TIME ( 7, 36, 50.00000000000000000, #21 ) ;
#70 = ORIENTED_EDGE ( 'NONE', *, *, #133, .T. ) ;
#71 = PERSON_AND_ORGANIZATION_ROLE ( 'design_supplier' ) ;
#72 = CLOSED_SHELL ( 'NONE', ( #155, #154, #54 ) ) ;
#73 = LOCAL_TIME ( 7, 36, 50.00000000000000000, #53 ) ;
#74 = PERSON_AND_ORGANIZATION ( #178, #164 ) ;
#75 = APPROVAL_ROLE ( '' ) ;
#76 = LOCAL_TIME ( 7, 36, 50.00000000000000000, #20 ) ;
#77 = DATE_AND_TIME ( #96, #69 ) ;
#78 = ADVANCED_FACE ( 'NONE', ( #126 ), #122, .F. ) ;
#79 = VERTEX_POINT ( 'NONE', #194 ) ;
#80 = AXIS2_PLACEMENT_3D ( 'NONE', #196, #89, #104 ) ;
#81 = CARTESIAN_POINT ( 'NONE',  ( 1.326762908760390423E-13, -4.653657836759941941E-15, 38.00000000000000000 ) ) ;
#82 = CARTESIAN_POINT ( 'NONE',  ( 2.793185071074490020E-16, 0.0000000000000000000, 0.07999999999999952982 ) ) ;
#83 = PLANE ( 'NONE',  #168 ) ;
#84 = ORIENTED_EDGE ( 'NONE', *, *, #85, .T. ) ;
#85 = EDGE_CURVE ( 'NONE', #61, #61, #197, .T. ) ;
#86 = DIRECTION ( 'NONE',  ( -3.491481338843133355E-15, 1.224646799147353207E-16, -1.000000000000000000 ) ) ;
#87 = APPROVAL ( #158, 'UNSPECIFIED' ) ;
#88 = ORIENTED_EDGE ( 'NONE', *, *, #222, .F. ) ;
#89 = DIRECTION ( 'NONE',  ( -3.491481338843133355E-15, 1.224646799147353207E-16, -1.000000000000000000 ) ) ;
#90 = ORIENTED_EDGE ( 'NONE', *, *, #18, .T. ) ;
#91 = CALENDAR_DATE ( 2021, 10, 11 ) ;
#92 = ORIENTED_EDGE ( 'NONE', *, *, #222, .T. ) ;
#93 = AXIS2_PLACEMENT_3D ( 'NONE', #109, #43, #7 ) ;
#94 = DATE_AND_TIME ( #2, #76 ) ;
#95 = AXIS2_PLACEMENT_3D ( 'NONE', #233, #29, #144 ) ;
#96 = CALENDAR_DATE ( 2021, 10, 11 ) ;
#97 = PRODUCT_DEFINITION_FORMATION_WITH_SPECIFIED_SOURCE ( 'ANY', '', #3, .NOT_KNOWN. ) ;
#98 = APPLICATION_CONTEXT ( 'configuration controlled 3d designs of mechanical parts and assemblies' ) ;
#99 = CC_DESIGN_PERSON_AND_ORGANIZATION_ASSIGNMENT ( #190, #213, ( #97 ) ) ;
#100 = DIRECTION ( 'NONE',  ( 1.000000000000000000, 0.0000000000000000000, -3.469446951953622866E-15 ) ) ;
#101 = CIRCLE ( 'NONE', #8, 0.1081483474218601359 ) ;
#102 = PLANE ( 'NONE',  #231 ) ;
#103 = EDGE_LOOP ( 'NONE', ( #107 ) ) ;
#104 = DIRECTION ( 'NONE',  ( 4.275831445896958607E-31, 1.000000000000000000, 1.224646799147353207E-16 ) ) ;
#105 = LOCAL_TIME ( 7, 36, 50.00000000000000000, #229 ) ;
#106 = CC_DESIGN_PERSON_AND_ORGANIZATION_ASSIGNMENT ( #74, #113, ( #3 ) ) ;
#107 = ORIENTED_EDGE ( 'NONE', *, *, #125, .F. ) ;
#108 = CLOSED_SHELL ( 'NONE', ( #16, #28, #78, #214, #175, #34 ) ) ;
#109 = CARTESIAN_POINT ( 'NONE',  ( -1.786038389295302186E-30, 0.0000000000000000000, -5.115417256925931626E-16 ) ) ;
#110 = PLANE ( 'NONE',  #210 ) ;
#111 = CC_DESIGN_SECURITY_CLASSIFICATION ( #149, ( #97 ) ) ;
#112 = EDGE_LOOP ( 'NONE', ( #70 ) ) ;
#113 = PERSON_AND_ORGANIZATION_ROLE ( 'design_owner' ) ;
#114 = SECURITY_CLASSIFICATION_LEVEL ( 'unclassified' ) ;
#115 = AXIS2_PLACEMENT_3D ( 'NONE', #81, #237, #120 ) ;
#116 = SHAPE_DEFINITION_REPRESENTATION ( #206, #137 ) ;
#117 = PERSON_AND_ORGANIZATION ( #178, #164 ) ;
#118 = MANIFOLD_SOLID_BREP ( 'Corps-Déplacer/Copier1[2]', #72 ) ;
#119 = CARTESIAN_POINT ( 'NONE',  ( 1.500000000000016209, 0.0000000000000000000, 5.792099174225469049 ) ) ;
#120 = DIRECTION ( 'NONE',  ( 0.0000000000000000000, 1.000000000000000000, 0.0000000000000000000 ) ) ;
#121 = AXIS2_PLACEMENT_3D ( 'NONE', #180, #148, #14 ) ;
#122 = PLANE ( 'NONE',  #80 ) ;
#123 = VERTEX_POINT ( 'NONE', #198 ) ;
#124 = DIRECTION ( 'NONE',  ( 1.000000000000000000, 0.0000000000000000000, -3.469446951953622866E-15 ) ) ;
#125 = EDGE_CURVE ( 'NONE', #123, #123, #101, .T. ) ;
#126 = FACE_OUTER_BOUND ( 'NONE', #199, .T. ) ;
#127 = CYLINDRICAL_SURFACE ( 'NONE', #93, 0.04000000000000010492 ) ;
#128 = CIRCLE ( 'NONE', #115, 1.199999999999998845 ) ;
#129 = FACE_OUTER_BOUND ( 'NONE', #64, .T. ) ;
#130 = CIRCLE ( 'NONE', #95, 0.04000000000000010492 ) ;
#131 = EDGE_LOOP ( 'NONE', ( #170 ) ) ;
#132 = APPROVAL_ROLE ( '' ) ;
#133 = EDGE_CURVE ( 'NONE', #234, #234, #138, .T. ) ;
#134 = APPROVAL_ROLE ( '' ) ;
#135 = APPROVAL_STATUS ( 'not_yet_approved' ) ;
#136 = UNCERTAINTY_MEASURE_WITH_UNIT (LENGTH_MEASURE( 1.000000000000000082E-05 ), #193, 'distance_accuracy_value', 'NONE');
#137 = ADVANCED_BREP_SHAPE_REPRESENTATION ( '954086', ( #35, #118, #204 ), #212 ) ;
#138 = CIRCLE ( 'NONE', #26, 0.04000000000000010492 ) ;
#139 = APPROVAL_DATE_TIME ( #56, #87 ) ;
#140 = APPLICATION_CONTEXT ( 'configuration controlled 3d designs of mechanical parts and assemblies' ) ;
#141 = APPROVAL_DATE_TIME ( #171, #232 ) ;
#142 = FACE_OUTER_BOUND ( 'NONE', #150, .T. ) ;
#143 = VERTEX_POINT ( 'NONE', #145 ) ;
#144 = DIRECTION ( 'NONE',  ( 1.000000000000000000, 0.0000000000000000000, -3.388131789017192284E-15 ) ) ;
#145 = CARTESIAN_POINT ( 'NONE',  ( 0.04000000000000038247, 0.0000000000000000000, 0.07999999999999915512 ) ) ;
#146 = CC_DESIGN_PERSON_AND_ORGANIZATION_ASSIGNMENT ( #39, #38, ( #149 ) ) ;
#147 = DIRECTION ( 'NONE',  ( 3.491481338843133355E-15, -0.0000000000000000000, 1.000000000000000000 ) ) ;
#148 = DIRECTION ( 'NONE',  ( -3.491481338843133355E-15, 1.224646799147353207E-16, -1.000000000000000000 ) ) ;
#149 = SECURITY_CLASSIFICATION ( '', '', #114 ) ;
#150 = EDGE_LOOP ( 'NONE', ( #153 ) ) ;
#151 = ORIENTED_EDGE ( 'NONE', *, *, #192, .T. ) ;
#152 = AXIS2_PLACEMENT_3D ( 'NONE', #160, #177, #100 ) ;
#153 = ORIENTED_EDGE ( 'NONE', *, *, #239, .T. ) ;
#154 = ADVANCED_FACE ( 'NONE', ( #13, #48 ), #127, .T. ) ;
#155 = ADVANCED_FACE ( 'NONE', ( #142 ), #102, .T. ) ;
#156 = DATE_TIME_ROLE ( 'creation_date' ) ;
#157 = MECHANICAL_CONTEXT ( 'NONE', #140, 'mechanical' ) ;
#158 = APPROVAL_STATUS ( 'not_yet_approved' ) ;
#159 =( NAMED_UNIT ( * ) PLANE_ANGLE_UNIT ( ) SI_UNIT ( $, .RADIAN. ) );
#160 = CARTESIAN_POINT ( 'NONE',  ( 2.022300617953696658E-14, 0.0000000000000000000, 5.792099174225474378 ) ) ;
#161 = DIRECTION ( 'NONE',  ( 1.000000000000000000, 0.0000000000000000000, -3.491481338843132961E-15 ) ) ;
#162 = DIRECTION ( 'NONE',  ( 1.000000000000000000, 0.0000000000000000000, -3.388131789017192284E-15 ) ) ;
#163 = DIRECTION ( 'NONE',  ( 3.491481338843133355E-15, -0.0000000000000000000, 1.000000000000000000 ) ) ;
#164 = ORGANIZATION ( 'UNSPECIFIED', 'UNSPECIFIED', '' ) ;
#165 = CYLINDRICAL_SURFACE ( 'NONE', #121, 1.499999999999996225 ) ;
#166 = DIRECTION ( 'NONE',  ( 0.0000000000000000000, 1.000000000000000000, 0.0000000000000000000 ) ) ;
#167 = EDGE_LOOP ( 'NONE', ( #151 ) ) ;
#168 = AXIS2_PLACEMENT_3D ( 'NONE', #203, #66, #47 ) ;
#169 = CC_DESIGN_DATE_AND_TIME_ASSIGNMENT ( #94, #156, ( #58 ) ) ;
#170 = ORIENTED_EDGE ( 'NONE', *, *, #125, .T. ) ;
#171 = DATE_AND_TIME ( #209, #191 ) ;
#172 = EDGE_LOOP ( 'NONE', ( #202 ) ) ;
#173 = COORDINATED_UNIVERSAL_TIME_OFFSET ( 1, 0, .AHEAD. ) ;
#174 = APPROVAL_PERSON_ORGANIZATION ( #17, #51, #75 ) ;
#175 = ADVANCED_FACE ( 'NONE', ( #22, #219 ), #50, .T. ) ;
#176 =( NAMED_UNIT ( * ) SI_UNIT ( $, .STERADIAN. ) SOLID_ANGLE_UNIT ( ) );
#177 = DIRECTION ( 'NONE',  ( 3.491481338843133355E-15, -0.0000000000000000000, 1.000000000000000000 ) ) ;
#178 = PERSON ( 'UNSPECIFIED', 'UNSPECIFIED', 'UNSPECIFIED', ('UNSPECIFIED'), ('UNSPECIFIED'), ('UNSPECIFIED') ) ;
#179 = CARTESIAN_POINT ( 'NONE',  ( 2.793185071074498401E-16, -1.011922027653137574E-17, 0.07999999999999976574 ) ) ;
#180 = CARTESIAN_POINT ( 'NONE',  ( 0.0000000000000000000, 0.0000000000000000000, 0.0000000000000000000 ) ) ;
#181 = CIRCLE ( 'NONE', #182, 0.04000000000000010492 ) ;
#182 = AXIS2_PLACEMENT_3D ( 'NONE', #236, #60, #162 ) ;
#183 = APPROVAL_PERSON_ORGANIZATION ( #55, #232, #134 ) ;
#184 = DIRECTION ( 'NONE',  ( -3.491481338843133355E-15, 1.224646799147353207E-16, -1.000000000000000000 ) ) ;
#185 = CARTESIAN_POINT ( 'NONE',  ( 1.316288464743861212E-13, -4.616918432785521081E-15, 37.69999999999999574 ) ) ;
#186 = FACE_OUTER_BOUND ( 'NONE', #205, .T. ) ;
#187 = CC_DESIGN_PERSON_AND_ORGANIZATION_ASSIGNMENT ( #36, #71, ( #97 ) ) ;
#188 = APPLICATION_PROTOCOL_DEFINITION ( 'international standard', 'config_control_design', 1994, #98 ) ;
#189 = APPROVAL_STATUS ( 'not_yet_approved' ) ;
#190 = PERSON_AND_ORGANIZATION ( #178, #164 ) ;
#191 = LOCAL_TIME ( 7, 36, 50.00000000000000000, #173 ) ;
#192 = EDGE_CURVE ( 'NONE', #44, #44, #128, .T. ) ;
#193 =( LENGTH_UNIT ( ) NAMED_UNIT ( * ) SI_UNIT ( .MILLI., .METRE. ) );
#194 = CARTESIAN_POINT ( 'NONE',  ( 0.04000000000000038247, 0.0000000000000000000, 0.07999999999999915512 ) ) ;
#195 = CARTESIAN_POINT ( 'NONE',  ( 0.04000000000000010492, 0.0000000000000000000, -1.396592535537256843E-16 ) ) ;
#196 = CARTESIAN_POINT ( 'NONE',  ( 1.326762908760390423E-13, 8.998558695971069014E-33, 38.00000000000000000 ) ) ;
#197 = CIRCLE ( 'NONE', #57, 1.499999999999998446 ) ;
#198 = CARTESIAN_POINT ( 'NONE',  ( 0.1081483474218622176, 0.0000000000000000000, 0.5976380902050278943 ) ) ;
#199 = EDGE_LOOP ( 'NONE', ( #224 ) ) ;
#200 = FACE_OUTER_BOUND ( 'NONE', #49, .T. ) ;
#201 = AXIS2_PLACEMENT_3D ( 'NONE', #240, #163, #124 ) ;
#202 = ORIENTED_EDGE ( 'NONE', *, *, #133, .F. ) ;
#203 = CARTESIAN_POINT ( 'NONE',  ( 2.793185071074498401E-16, -1.011922027653137574E-17, 0.07999999999999976574 ) ) ;
#204 = AXIS2_PLACEMENT_3D ( 'NONE', #211, #225, #4 ) ;
#205 = EDGE_LOOP ( 'NONE', ( #90 ) ) ;
#206 = PRODUCT_DEFINITION_SHAPE ( 'NONE', 'NONE',  #58 ) ;
#207 = APPLICATION_PROTOCOL_DEFINITION ( 'international standard', 'config_control_design', 1994, #140 ) ;
#208 = PERSON_AND_ORGANIZATION ( #178, #164 ) ;
#209 = CALENDAR_DATE ( 2021, 10, 11 ) ;
#210 = AXIS2_PLACEMENT_3D ( 'NONE', #238, #241, #63 ) ;
#211 = CARTESIAN_POINT ( 'NONE',  ( 0.0000000000000000000, 0.0000000000000000000, 0.0000000000000000000 ) ) ;
#212 =( GEOMETRIC_REPRESENTATION_CONTEXT ( 3 ) GLOBAL_UNCERTAINTY_ASSIGNED_CONTEXT ( ( #136 ) ) GLOBAL_UNIT_ASSIGNED_CONTEXT ( ( #193, #159, #176 ) ) REPRESENTATION_CONTEXT ( 'NONE', 'WORKASPACE' ) );
#213 = PERSON_AND_ORGANIZATION_ROLE ( 'creator' ) ;
#214 = ADVANCED_FACE ( 'NONE', ( #10, #45 ), #9, .F. ) ;
#215 = APPROVAL_PERSON_ORGANIZATION ( #117, #87, #132 ) ;
#216 = DIRECTION ( 'NONE',  ( 3.491481338843133355E-15, -1.224646799147353207E-16, 1.000000000000000000 ) ) ;
#217 = CC_DESIGN_APPROVAL ( #232, ( #97 ) ) ;
#218 = VERTEX_POINT ( 'NONE', #119 ) ;
#219 = FACE_OUTER_BOUND ( 'NONE', #221, .T. ) ;
#220 = DIRECTION ( 'NONE',  ( 1.000000000000000000, 0.0000000000000000000, -3.007541580611393301E-15 ) ) ;
#221 = EDGE_LOOP ( 'NONE', ( #33 ) ) ;
#222 = EDGE_CURVE ( 'NONE', #79, #79, #181, .T. ) ;
#223 = DIRECTION ( 'NONE',  ( 3.491481338843133355E-15, -0.0000000000000000000, 1.000000000000000000 ) ) ;
#224 = ORIENTED_EDGE ( 'NONE', *, *, #192, .F. ) ;
#225 = DIRECTION ( 'NONE',  ( 0.0000000000000000000, 0.0000000000000000000, 1.000000000000000000 ) ) ;
#226 = PERSON_AND_ORGANIZATION_ROLE ( 'creator' ) ;
#227 = CC_DESIGN_APPROVAL ( #87, ( #149 ) ) ;
#228 = APPROVAL_DATE_TIME ( #5, #51 ) ;
#229 = COORDINATED_UNIVERSAL_TIME_OFFSET ( 1, 0, .AHEAD. ) ;
#230 = CIRCLE ( 'NONE', #201, 1.499999999999996225 ) ;
#231 = AXIS2_PLACEMENT_3D ( 'NONE', #179, #216, #24 ) ;
#232 = APPROVAL ( #135, 'UNSPECIFIED' ) ;
#233 = CARTESIAN_POINT ( 'NONE',  ( 2.793185071074482131E-16, 0.0000000000000000000, 0.07999999999999929390 ) ) ;
#234 = VERTEX_POINT ( 'NONE', #195 ) ;
#235 = AXIS2_PLACEMENT_3D ( 'NONE', #82, #41, #161 ) ;
#236 = CARTESIAN_POINT ( 'NONE',  ( 2.793185071074482131E-16, 0.0000000000000000000, 0.07999999999999929390 ) ) ;
#237 = DIRECTION ( 'NONE',  ( -3.491481338843133355E-15, 1.224646799147353207E-16, -1.000000000000000000 ) ) ;
#238 = CARTESIAN_POINT ( 'NONE',  ( -6.413803915257457113E-31, 2.249659577954772199E-32, -1.836986451539393076E-16 ) ) ;
#239 = EDGE_CURVE ( 'NONE', #143, #143, #130, .T. ) ;
#240 = CARTESIAN_POINT ( 'NONE',  ( 2.022300617953696658E-14, 0.0000000000000000000, 5.792099174225474378 ) ) ;
#241 = DIRECTION ( 'NONE',  ( 3.491481338843133355E-15, -1.224646799147353207E-16, 1.000000000000000000 ) ) ;
#242 = CARTESIAN_POINT ( 'NONE',  ( 2.086642239332704840E-15, 0.0000000000000000000, 0.5976380902050282273 ) ) ;
#243 = CONICAL_SURFACE ( 'NONE', #67, 1.199999999999998845, 0.7853981633974450594 ) ;
ENDSEC;
END-ISO-10303-21;
