ISO-10303-21;
HEADER;
FILE_DESCRIPTION (( 'STEP AP203' ),
    '1' );
FILE_NAME ('954085.step',
    '2021-11-10T06:36:49',
    ( '' ),
    ( '' ),
    'SwSTEP 2.0',
    'SolidWorks 2019',
    '' );
FILE_SCHEMA (( 'CONFIG_CONTROL_DESIGN' ));
ENDSEC;

DATA;
#1 = ORIENTED_EDGE ( 'NONE', *, *, #14, .F. ) ;
#2 = ADVANCED_FACE ( 'NONE', ( #174 ), #26, .F. ) ;
#3 = DIRECTION ( 'NONE',  ( -3.491481338843133355E-15, 1.224646799147353207E-16, -1.000000000000000000 ) ) ;
#4 = CONICAL_SURFACE ( 'NONE', #206, 1.199999999999998845, 0.7853981633974450594 ) ;
#5 = CARTESIAN_POINT ( 'NONE',  ( 1.745740669421558789E-16, -6.098637220230953197E-18, 0.04999999999999977379 ) ) ;
#6 = CALENDAR_DATE ( 2021, 10, 11 ) ;
#7 = CLOSED_SHELL ( 'NONE', ( #207, #155, #170, #114, #133, #2 ) ) ;
#8 = PERSON_AND_ORGANIZATION ( #100, #142 ) ;
#9 = VERTEX_POINT ( 'NONE', #140 ) ;
#10 = PERSON_AND_ORGANIZATION ( #100, #142 ) ;
#11 = CARTESIAN_POINT ( 'NONE',  ( 1.326762908760390423E-13, 8.998558695971069014E-33, 38.00000000000000000 ) ) ;
#12 = CARTESIAN_POINT ( 'NONE',  ( 0.02500000000000006384, 0.0000000000000000000, -8.728703347107855575E-17 ) ) ;
#13 = SECURITY_CLASSIFICATION_LEVEL ( 'unclassified' ) ;
#14 = EDGE_CURVE ( 'NONE', #185, #185, #36, .T. ) ;
#15 = ORIENTED_EDGE ( 'NONE', *, *, #14, .T. ) ;
#16 = FACE_OUTER_BOUND ( 'NONE', #164, .T. ) ;
#17 = AXIS2_PLACEMENT_3D ( 'NONE', #19, #92, #216 ) ;
#18 = EDGE_LOOP ( 'NONE', ( #139 ) ) ;
#19 = CARTESIAN_POINT ( 'NONE',  ( 1.316288464743861212E-13, -4.616918432785521081E-15, 37.69999999999999574 ) ) ;
#20 = DIRECTION ( 'NONE',  ( -3.491481338843133355E-15, 1.224646799147353207E-16, -1.000000000000000000 ) ) ;
#21 = EDGE_LOOP ( 'NONE', ( #241 ) ) ;
#22 = EDGE_CURVE ( 'NONE', #9, #9, #53, .T. ) ;
#23 = ORIENTED_EDGE ( 'NONE', *, *, #64, .T. ) ;
#24 = ADVANCED_FACE ( 'NONE', ( #45 ), #63, .F. ) ;
#25 = DESIGN_CONTEXT ( 'detailed design', #97, 'design' ) ;
#26 = PLANE ( 'NONE',  #98 ) ;
#27 = PERSON_AND_ORGANIZATION_ROLE ( 'creator' ) ;
#28 = AXIS2_PLACEMENT_3D ( 'NONE', #123, #105, #166 ) ;
#29 = PERSON_AND_ORGANIZATION_ROLE ( 'creator' ) ;
#30 = SHAPE_DEFINITION_REPRESENTATION ( #202, #132 ) ;
#31 = CARTESIAN_POINT ( 'NONE',  ( 0.09314834742186185734, 0.0000000000000000000, 0.5676380902050278676 ) ) ;
#32 = DIRECTION ( 'NONE',  ( 0.0000000000000000000, 0.0000000000000000000, 1.000000000000000000 ) ) ;
#33 = ORIENTED_EDGE ( 'NONE', *, *, #204, .F. ) ;
#34 = DIRECTION ( 'NONE',  ( 3.491481338843133355E-15, -0.0000000000000000000, 1.000000000000000000 ) ) ;
#35 = PLANE ( 'NONE',  #228 ) ;
#36 = CIRCLE ( 'NONE', #118, 1.199999999999998845 ) ;
#37 = PERSON_AND_ORGANIZATION ( #100, #142 ) ;
#38 = DIRECTION ( 'NONE',  ( 1.000000000000000000, 0.0000000000000000000, -3.491856385519941147E-15 ) ) ;
#39 = CARTESIAN_POINT ( 'NONE',  ( 1.745740669421542272E-16, 0.0000000000000000000, 0.04999999999999930195 ) ) ;
#40 = EDGE_LOOP ( 'NONE', ( #197 ) ) ;
#41 = CC_DESIGN_APPROVAL ( #42, ( #77 ) ) ;
#42 = APPROVAL ( #119, 'UNSPECIFIED' ) ;
#43 = APPROVAL_PERSON_ORGANIZATION ( #10, #42, #227 ) ;
#44 = DIRECTION ( 'NONE',  ( 3.491481338843133355E-15, -1.224646799147353207E-16, 1.000000000000000000 ) ) ;
#45 = FACE_OUTER_BOUND ( 'NONE', #143, .T. ) ;
#46 = DIRECTION ( 'NONE',  ( 1.000000000000000000, 0.0000000000000000000, -3.469446951953622866E-15 ) ) ;
#47 = CC_DESIGN_APPROVAL ( #108, ( #131 ) ) ;
#48 = DATE_TIME_ROLE ( 'creation_date' ) ;
#49 = EDGE_CURVE ( 'NONE', #213, #213, #234, .T. ) ;
#50 = MANIFOLD_SOLID_BREP ( 'Corps-Déplacer/Copier1[1]', #7 ) ;
#51 = DIRECTION ( 'NONE',  ( 1.000000000000000000, 0.0000000000000000000, 0.0000000000000000000 ) ) ;
#52 = DATE_AND_TIME ( #6, #225 ) ;
#53 = CIRCLE ( 'NONE', #188, 1.499999999999996225 ) ;
#54 = EDGE_LOOP ( 'NONE', ( #15 ) ) ;
#55 = CARTESIAN_POINT ( 'NONE',  ( 0.02500000000000002567, 0.0000000000000000000, 0.04999999999999921868 ) ) ;
#56 = CARTESIAN_POINT ( 'NONE',  ( 1.316288464743861212E-13, 1.499999999999994005, 37.69999999999999574 ) ) ;
#57 = DIRECTION ( 'NONE',  ( 1.000000000000000000, 0.0000000000000000000, -3.491481338843133355E-15 ) ) ;
#58 = EDGE_LOOP ( 'NONE', ( #23 ) ) ;
#59 = FACE_OUTER_BOUND ( 'NONE', #152, .T. ) ;
#60 = CIRCLE ( 'NONE', #28, 0.02499999999999984873 ) ;
#61 = MANIFOLD_SOLID_BREP ( 'Corps-Déplacer/Copier1[2]', #169 ) ;
#62 = APPROVAL ( #110, 'UNSPECIFIED' ) ;
#63 = PLANE ( 'NONE',  #162 ) ;
#64 = EDGE_CURVE ( 'NONE', #198, #198, #136, .T. ) ;
#65 = COORDINATED_UNIVERSAL_TIME_OFFSET ( 1, 0, .AHEAD. ) ;
#66 =( LENGTH_UNIT ( ) NAMED_UNIT ( * ) SI_UNIT ( .MILLI., .METRE. ) );
#67 = APPROVAL_ROLE ( '' ) ;
#68 = CARTESIAN_POINT ( 'NONE',  ( 0.0000000000000000000, 0.0000000000000000000, 0.0000000000000000000 ) ) ;
#69 = DATE_AND_TIME ( #177, #79 ) ;
#70 = CC_DESIGN_SECURITY_CLASSIFICATION ( #209, ( #131 ) ) ;
#71 = PLANE ( 'NONE',  #172 ) ;
#72 = ORIENTED_EDGE ( 'NONE', *, *, #204, .T. ) ;
#73 = FACE_BOUND ( 'NONE', #58, .T. ) ;
#74 = PRODUCT ( '954085', '954085', '', ( #210 ) ) ;
#75 = CALENDAR_DATE ( 2021, 10, 11 ) ;
#76 = FACE_OUTER_BOUND ( 'NONE', #199, .T. ) ;
#77 = PRODUCT_DEFINITION ( 'UNKNOWN', '', #131, #25 ) ;
#78 = AXIS2_PLACEMENT_3D ( 'NONE', #129, #243, #38 ) ;
#79 = LOCAL_TIME ( 7, 36, 49.00000000000000000, #102 ) ;
#80 = AXIS2_PLACEMENT_3D ( 'NONE', #124, #34, #182 ) ;
#81 = CARTESIAN_POINT ( 'NONE',  ( 2.031371752562529802E-14, 0.0000000000000000000, 5.818079936339009883 ) ) ;
#82 = CC_DESIGN_PERSON_AND_ORGANIZATION_ASSIGNMENT ( #192, #137, ( #74 ) ) ;
#83 = VERTEX_POINT ( 'NONE', #56 ) ;
#84 = APPLICATION_CONTEXT ( 'configuration controlled 3d designs of mechanical parts and assemblies' ) ;
#85 = CARTESIAN_POINT ( 'NONE',  ( 2.031371752562529802E-14, 0.0000000000000000000, 5.818079936339009883 ) ) ;
#86 = ORIENTED_EDGE ( 'NONE', *, *, #49, .T. ) ;
#87 = CARTESIAN_POINT ( 'NONE',  ( 1.745740669421550900E-16, 0.0000000000000000000, 0.04999999999999955175 ) ) ;
#88 = CARTESIAN_POINT ( 'NONE',  ( 1.745740669421558789E-16, -6.098637220230953197E-18, 0.04999999999999977379 ) ) ;
#89 = DATE_AND_TIME ( #75, #154 ) ;
#90 = EDGE_LOOP ( 'NONE', ( #86 ) ) ;
#91 = EDGE_CURVE ( 'NONE', #214, #214, #60, .T. ) ;
#92 = DIRECTION ( 'NONE',  ( -3.491481338843133355E-15, 1.224646799147353207E-16, -1.000000000000000000 ) ) ;
#93 = DATE_AND_TIME ( #184, #121 ) ;
#94 = CARTESIAN_POINT ( 'NONE',  ( 1.326762908760390423E-13, 1.199999999999994182, 38.00000000000000000 ) ) ;
#95 = AXIS2_PLACEMENT_3D ( 'NONE', #229, #32, #51 ) ;
#96 = EDGE_LOOP ( 'NONE', ( #212 ) ) ;
#97 = APPLICATION_CONTEXT ( 'configuration controlled 3d designs of mechanical parts and assemblies' ) ;
#98 = AXIS2_PLACEMENT_3D ( 'NONE', #5, #44, #134 ) ;
#99 = LOCAL_TIME ( 7, 36, 49.00000000000000000, #65 ) ;
#100 = PERSON ( 'UNSPECIFIED', 'UNSPECIFIED', 'UNSPECIFIED', ('UNSPECIFIED'), ('UNSPECIFIED'), ('UNSPECIFIED') ) ;
#101 = CALENDAR_DATE ( 2021, 10, 11 ) ;
#102 = COORDINATED_UNIVERSAL_TIME_OFFSET ( 1, 0, .AHEAD. ) ;
#103 = AXIS2_PLACEMENT_3D ( 'NONE', #39, #186, #240 ) ;
#104 =( NAMED_UNIT ( * ) SI_UNIT ( $, .STERADIAN. ) SOLID_ANGLE_UNIT ( ) );
#105 = DIRECTION ( 'NONE',  ( 3.491481338843133355E-15, -0.0000000000000000000, 1.000000000000000000 ) ) ;
#106 = APPLICATION_PROTOCOL_DEFINITION ( 'international standard', 'config_control_design', 1994, #97 ) ;
#107 = FACE_OUTER_BOUND ( 'NONE', #21, .T. ) ;
#108 = APPROVAL ( #138, 'UNSPECIFIED' ) ;
#109 = CARTESIAN_POINT ( 'NONE',  ( 1.326762908760390423E-13, -4.653657836759941941E-15, 38.00000000000000000 ) ) ;
#110 = APPROVAL_STATUS ( 'not_yet_approved' ) ;
#111 = CYLINDRICAL_SURFACE ( 'NONE', #151, 0.02499999999999995628 ) ;
#112 = DATE_TIME_ROLE ( 'classification_date' ) ;
#113 = CC_DESIGN_PERSON_AND_ORGANIZATION_ASSIGNMENT ( #181, #195, ( #209 ) ) ;
#114 = ADVANCED_FACE ( 'NONE', ( #238, #59 ), #178, .F. ) ;
#115 = AXIS2_PLACEMENT_3D ( 'NONE', #68, #230, #150 ) ;
#116 = DIRECTION ( 'NONE',  ( 3.491481338843133355E-15, -1.224646799147353207E-16, 1.000000000000000000 ) ) ;
#117 = DIRECTION ( 'NONE',  ( 0.0000000000000000000, 1.000000000000000000, 0.0000000000000000000 ) ) ;
#118 = AXIS2_PLACEMENT_3D ( 'NONE', #171, #3, #117 ) ;
#119 = APPROVAL_STATUS ( 'not_yet_approved' ) ;
#120 = APPROVAL_DATE_TIME ( #52, #108 ) ;
#121 = LOCAL_TIME ( 7, 36, 49.00000000000000000, #215 ) ;
#122 = ORIENTED_EDGE ( 'NONE', *, *, #64, .F. ) ;
#123 = CARTESIAN_POINT ( 'NONE',  ( 1.745740669421542272E-16, 0.0000000000000000000, 0.04999999999999930195 ) ) ;
#124 = CARTESIAN_POINT ( 'NONE',  ( 0.0000000000000000000, 0.0000000000000000000, 0.0000000000000000000 ) ) ;
#125 = ADVANCED_FACE ( 'NONE', ( #201 ), #35, .T. ) ;
#126 = DIRECTION ( 'NONE',  ( 0.0000000000000000000, 1.000000000000000000, 0.0000000000000000000 ) ) ;
#127 = AXIS2_PLACEMENT_3D ( 'NONE', #85, #218, #242 ) ;
#128 = CARTESIAN_POINT ( 'NONE',  ( -1.786038389295302186E-30, 0.0000000000000000000, -5.115417256925931626E-16 ) ) ;
#129 = CARTESIAN_POINT ( 'NONE',  ( 1.981897799167411076E-15, 0.0000000000000000000, 0.5676380902050282007 ) ) ;
#130 = ORIENTED_EDGE ( 'NONE', *, *, #22, .F. ) ;
#131 = PRODUCT_DEFINITION_FORMATION_WITH_SPECIFIED_SOURCE ( 'ANY', '', #74, .NOT_KNOWN. ) ;
#132 = ADVANCED_BREP_SHAPE_REPRESENTATION ( '954085', ( #50, #61, #95 ), #193 ) ;
#133 = ADVANCED_FACE ( 'NONE', ( #73, #148 ), #187, .T. ) ;
#134 = DIRECTION ( 'NONE',  ( -4.275831445896958607E-31, -1.000000000000000000, -1.224646799147353207E-16 ) ) ;
#135 = CC_DESIGN_PERSON_AND_ORGANIZATION_ASSIGNMENT ( #141, #146, ( #131 ) ) ;
#136 = CIRCLE ( 'NONE', #78, 0.09314834742185987282 ) ;
#137 = PERSON_AND_ORGANIZATION_ROLE ( 'design_owner' ) ;
#138 = APPROVAL_STATUS ( 'not_yet_approved' ) ;
#139 = ORIENTED_EDGE ( 'NONE', *, *, #49, .F. ) ;
#140 = CARTESIAN_POINT ( 'NONE',  ( 1.500000000000016431, 0.0000000000000000000, 5.818079936339004554 ) ) ;
#141 = PERSON_AND_ORGANIZATION ( #100, #142 ) ;
#142 = ORGANIZATION ( 'UNSPECIFIED', 'UNSPECIFIED', '' ) ;
#143 = EDGE_LOOP ( 'NONE', ( #33 ) ) ;
#144 = DIRECTION ( 'NONE',  ( 4.275831445896958607E-31, 1.000000000000000000, 1.224646799147353207E-16 ) ) ;
#145 = APPLICATION_PROTOCOL_DEFINITION ( 'international standard', 'config_control_design', 1994, #84 ) ;
#146 = PERSON_AND_ORGANIZATION_ROLE ( 'design_supplier' ) ;
#147 = EDGE_LOOP ( 'NONE', ( #130 ) ) ;
#148 = FACE_OUTER_BOUND ( 'NONE', #147, .T. ) ;
#149 = COORDINATED_UNIVERSAL_TIME_OFFSET ( 1, 0, .AHEAD. ) ;
#150 = DIRECTION ( 'NONE',  ( 4.275831445896958607E-31, 1.000000000000000000, 1.224646799147353207E-16 ) ) ;
#151 = AXIS2_PLACEMENT_3D ( 'NONE', #128, #237, #205 ) ;
#152 = EDGE_LOOP ( 'NONE', ( #122 ) ) ;
#153 = CC_DESIGN_PERSON_AND_ORGANIZATION_ASSIGNMENT ( #194, #29, ( #131 ) ) ;
#154 = LOCAL_TIME ( 7, 36, 49.00000000000000000, #149 ) ;
#155 = ADVANCED_FACE ( 'NONE', ( #107, #200 ), #4, .T. ) ;
#156 = CARTESIAN_POINT ( 'NONE',  ( 0.02500000000000002567, 0.0000000000000000000, 0.04999999999999921868 ) ) ;
#157 = CIRCLE ( 'NONE', #80, 0.02500000000000006384 ) ;
#158 = FACE_OUTER_BOUND ( 'NONE', #96, .T. ) ;
#159 = APPROVAL_DATE_TIME ( #180, #42 ) ;
#160 = EDGE_LOOP ( 'NONE', ( #217 ) ) ;
#161 = DIRECTION ( 'NONE',  ( -3.491481338843133355E-15, 1.224646799147353207E-16, -1.000000000000000000 ) ) ;
#162 = AXIS2_PLACEMENT_3D ( 'NONE', #223, #116, #189 ) ;
#163 = PRODUCT_RELATED_PRODUCT_CATEGORY ( 'detail', '', ( #74 ) ) ;
#164 = EDGE_LOOP ( 'NONE', ( #72 ) ) ;
#165 = CYLINDRICAL_SURFACE ( 'NONE', #115, 1.499999999999996225 ) ;
#166 = DIRECTION ( 'NONE',  ( 1.000000000000000000, 0.0000000000000000000, -3.523657060577910710E-15 ) ) ;
#167 = DIRECTION ( 'NONE',  ( -4.275831445896958607E-31, -1.000000000000000000, -1.224646799147353207E-16 ) ) ;
#168 = CIRCLE ( 'NONE', #17, 1.499999999999998446 ) ;
#169 = CLOSED_SHELL ( 'NONE', ( #125, #219, #24 ) ) ;
#170 = ADVANCED_FACE ( 'NONE', ( #183 ), #71, .F. ) ;
#171 = CARTESIAN_POINT ( 'NONE',  ( 1.326762908760390423E-13, -4.653657836759941941E-15, 38.00000000000000000 ) ) ;
#172 = AXIS2_PLACEMENT_3D ( 'NONE', #11, #20, #144 ) ;
#173 = CC_DESIGN_APPROVAL ( #62, ( #209 ) ) ;
#174 = FACE_OUTER_BOUND ( 'NONE', #18, .T. ) ;
#175 = EDGE_CURVE ( 'NONE', #83, #83, #168, .T. ) ;
#176 = PERSON_AND_ORGANIZATION ( #100, #142 ) ;
#177 = CALENDAR_DATE ( 2021, 10, 11 ) ;
#178 = TOROIDAL_SURFACE ( 'NONE', #203, 2.024999999999999911, 2.000000000000000000 ) ;
#179 = DIRECTION ( 'NONE',  ( 3.491481338843133355E-15, -0.0000000000000000000, 1.000000000000000000 ) ) ;
#180 = DATE_AND_TIME ( #101, #99 ) ;
#181 = PERSON_AND_ORGANIZATION ( #100, #142 ) ;
#182 = DIRECTION ( 'NONE',  ( 1.000000000000000000, 0.0000000000000000000, -3.491481338843133355E-15 ) ) ;
#183 = FACE_OUTER_BOUND ( 'NONE', #221, .T. ) ;
#184 = CALENDAR_DATE ( 2021, 10, 11 ) ;
#185 = VERTEX_POINT ( 'NONE', #94 ) ;
#186 = DIRECTION ( 'NONE',  ( 3.491481338843133355E-15, -0.0000000000000000000, 1.000000000000000000 ) ) ;
#187 = CONICAL_SURFACE ( 'NONE', #127, 1.499999999999996225, 0.2617993877991428020 ) ;
#188 = AXIS2_PLACEMENT_3D ( 'NONE', #81, #226, #46 ) ;
#189 = DIRECTION ( 'NONE',  ( -4.275831445896958607E-31, -1.000000000000000000, -1.224646799147353207E-16 ) ) ;
#190 = CC_DESIGN_DATE_AND_TIME_ASSIGNMENT ( #69, #48, ( #77 ) ) ;
#191 =( NAMED_UNIT ( * ) PLANE_ANGLE_UNIT ( ) SI_UNIT ( $, .RADIAN. ) );
#192 = PERSON_AND_ORGANIZATION ( #100, #142 ) ;
#193 =( GEOMETRIC_REPRESENTATION_CONTEXT ( 3 ) GLOBAL_UNCERTAINTY_ASSIGNED_CONTEXT ( ( #224 ) ) GLOBAL_UNIT_ASSIGNED_CONTEXT ( ( #66, #191, #104 ) ) REPRESENTATION_CONTEXT ( 'NONE', 'WORKASPACE' ) );
#194 = PERSON_AND_ORGANIZATION ( #100, #142 ) ;
#195 = PERSON_AND_ORGANIZATION_ROLE ( 'classification_officer' ) ;
#196 = CC_DESIGN_DATE_AND_TIME_ASSIGNMENT ( #89, #112, ( #209 ) ) ;
#197 = ORIENTED_EDGE ( 'NONE', *, *, #91, .F. ) ;
#198 = VERTEX_POINT ( 'NONE', #31 ) ;
#199 = EDGE_LOOP ( 'NONE', ( #222 ) ) ;
#200 = FACE_BOUND ( 'NONE', #54, .T. ) ;
#201 = FACE_OUTER_BOUND ( 'NONE', #160, .T. ) ;
#202 = PRODUCT_DEFINITION_SHAPE ( 'NONE', 'NONE',  #77 ) ;
#203 = AXIS2_PLACEMENT_3D ( 'NONE', #87, #179, #57 ) ;
#204 = EDGE_CURVE ( 'NONE', #231, #231, #157, .T. ) ;
#205 = DIRECTION ( 'NONE',  ( 1.000000000000000000, 0.0000000000000000000, -3.491481338843132566E-15 ) ) ;
#206 = AXIS2_PLACEMENT_3D ( 'NONE', #109, #161, #126 ) ;
#207 = ADVANCED_FACE ( 'NONE', ( #76, #158 ), #165, .T. ) ;
#208 = APPROVAL_PERSON_ORGANIZATION ( #8, #108, #67 ) ;
#209 = SECURITY_CLASSIFICATION ( '', '', #13 ) ;
#210 = MECHANICAL_CONTEXT ( 'NONE', #84, 'mechanical' ) ;
#211 = COORDINATED_UNIVERSAL_TIME_OFFSET ( 1, 0, .AHEAD. ) ;
#212 = ORIENTED_EDGE ( 'NONE', *, *, #22, .T. ) ;
#213 = VERTEX_POINT ( 'NONE', #55 ) ;
#214 = VERTEX_POINT ( 'NONE', #156 ) ;
#215 = COORDINATED_UNIVERSAL_TIME_OFFSET ( 1, 0, .AHEAD. ) ;
#216 = DIRECTION ( 'NONE',  ( 0.0000000000000000000, 1.000000000000000000, 0.0000000000000000000 ) ) ;
#217 = ORIENTED_EDGE ( 'NONE', *, *, #91, .T. ) ;
#218 = DIRECTION ( 'NONE',  ( 3.491481338843133355E-15, -0.0000000000000000000, 1.000000000000000000 ) ) ;
#219 = ADVANCED_FACE ( 'NONE', ( #16, #220 ), #111, .T. ) ;
#220 = FACE_OUTER_BOUND ( 'NONE', #40, .T. ) ;
#221 = EDGE_LOOP ( 'NONE', ( #1 ) ) ;
#222 = ORIENTED_EDGE ( 'NONE', *, *, #175, .T. ) ;
#223 = CARTESIAN_POINT ( 'NONE',  ( -6.413803915257457113E-31, 2.249659577954772199E-32, -1.836986451539393076E-16 ) ) ;
#224 = UNCERTAINTY_MEASURE_WITH_UNIT (LENGTH_MEASURE( 1.000000000000000082E-05 ), #66, 'distance_accuracy_value', 'NONE');
#225 = LOCAL_TIME ( 7, 36, 49.00000000000000000, #211 ) ;
#226 = DIRECTION ( 'NONE',  ( 3.491481338843133355E-15, -0.0000000000000000000, 1.000000000000000000 ) ) ;
#227 = APPROVAL_ROLE ( '' ) ;
#228 = AXIS2_PLACEMENT_3D ( 'NONE', #88, #233, #167 ) ;
#229 = CARTESIAN_POINT ( 'NONE',  ( 0.0000000000000000000, 0.0000000000000000000, 0.0000000000000000000 ) ) ;
#230 = DIRECTION ( 'NONE',  ( -3.491481338843133355E-15, 1.224646799147353207E-16, -1.000000000000000000 ) ) ;
#231 = VERTEX_POINT ( 'NONE', #12 ) ;
#232 = APPROVAL_ROLE ( '' ) ;
#233 = DIRECTION ( 'NONE',  ( 3.491481338843133355E-15, -1.224646799147353207E-16, 1.000000000000000000 ) ) ;
#234 = CIRCLE ( 'NONE', #103, 0.02499999999999984873 ) ;
#235 = APPROVAL_PERSON_ORGANIZATION ( #37, #62, #232 ) ;
#236 = CC_DESIGN_PERSON_AND_ORGANIZATION_ASSIGNMENT ( #176, #27, ( #77 ) ) ;
#237 = DIRECTION ( 'NONE',  ( 3.491481338843133355E-15, -0.0000000000000000000, 1.000000000000000000 ) ) ;
#238 = FACE_OUTER_BOUND ( 'NONE', #90, .T. ) ;
#239 = APPROVAL_DATE_TIME ( #93, #62 ) ;
#240 = DIRECTION ( 'NONE',  ( 1.000000000000000000, 0.0000000000000000000, -3.523657060577910710E-15 ) ) ;
#241 = ORIENTED_EDGE ( 'NONE', *, *, #175, .F. ) ;
#242 = DIRECTION ( 'NONE',  ( 1.000000000000000000, 0.0000000000000000000, -3.469446951953622866E-15 ) ) ;
#243 = DIRECTION ( 'NONE',  ( 3.491481338843133355E-15, -0.0000000000000000000, 1.000000000000000000 ) ) ;
ENDSEC;
END-ISO-10303-21;
