ISO-10303-21;
HEADER;
FILE_DESCRIPTION (( 'STEP AP203' ),
    '1' );
FILE_NAME ('954075.step',
    '2021-11-30T09:36:58',
    ( '' ),
    ( '' ),
    'SwSTEP 2.0',
    'SolidWorks 2019',
    '' );
FILE_SCHEMA (( 'CONFIG_CONTROL_DESIGN' ));
ENDSEC;

DATA;
#1 = DIRECTION ( 'NONE',  ( 0.0000000000000000000, 1.000000000000000000, 0.0000000000000000000 ) ) ;
#2 = LOCAL_TIME ( 10, 36, 58.00000000000000000, #33 ) ;
#3 = ADVANCED_FACE ( 'NONE', ( #157, #222 ), #118, .T. ) ;
#4 = EDGE_LOOP ( 'NONE', ( #202 ) ) ;
#5 =( NAMED_UNIT ( * ) PLANE_ANGLE_UNIT ( ) SI_UNIT ( $, .RADIAN. ) );
#6 = PRODUCT ( '954075', '954075', '', ( #82 ) ) ;
#7 = ADVANCED_FACE ( 'NONE', ( #13, #224 ), #156, .T. ) ;
#8 = DATE_TIME_ROLE ( 'creation_date' ) ;
#9 = EDGE_LOOP ( 'NONE', ( #246 ) ) ;
#10 = AXIS2_PLACEMENT_3D ( 'NONE', #274, #76, #72 ) ;
#11 = DATE_AND_TIME ( #106, #121 ) ;
#12 = DIRECTION ( 'NONE',  ( -4.275831445896959482E-31, -1.000000000000000000, -1.224646799147353454E-16 ) ) ;
#13 = FACE_OUTER_BOUND ( 'NONE', #264, .T. ) ;
#14 = CARTESIAN_POINT ( 'NONE',  ( 0.0000000000000000000, 0.0000000000000000000, 0.0000000000000000000 ) ) ;
#15 = DIRECTION ( 'NONE',  ( 4.275831445896959482E-31, 1.000000000000000000, 1.224646799147353454E-16 ) ) ;
#16 = CC_DESIGN_PERSON_AND_ORGANIZATION_ASSIGNMENT ( #279, #30, ( #115 ) ) ;
#17 = ADVANCED_FACE ( 'NONE', ( #180 ), #223, .F. ) ;
#18 = DIRECTION ( 'NONE',  ( -3.491481338843133355E-15, 1.224646799147353454E-16, -1.000000000000000000 ) ) ;
#19 = DIRECTION ( 'NONE',  ( -4.332800774774438367E-31, -1.000000000000000000, -1.219574997171547312E-16 ) ) ;
#20 = AXIS2_PLACEMENT_3D ( 'NONE', #88, #136, #292 ) ;
#21 = PLANE ( 'NONE',  #269 ) ;
#22 = LOCAL_TIME ( 10, 36, 58.00000000000000000, #54 ) ;
#23 = VERTEX_POINT ( 'NONE', #275 ) ;
#24 = DIRECTION ( 'NONE',  ( -3.491481338843133355E-15, 1.224646799147353454E-16, -1.000000000000000000 ) ) ;
#25 = AXIS2_PLACEMENT_3D ( 'NONE', #41, #226, #86 ) ;
#26 = FACE_BOUND ( 'NONE', #249, .T. ) ;
#27 = APPROVAL ( #196, 'UNSPECIFIED' ) ;
#28 = PERSON_AND_ORGANIZATION ( #146, #101 ) ;
#29 = APPROVAL_PERSON_ORGANIZATION ( #263, #295, #129 ) ;
#30 = PERSON_AND_ORGANIZATION_ROLE ( 'design_supplier' ) ;
#31 = APPLICATION_CONTEXT ( 'configuration controlled 3d designs of mechanical parts and assemblies' ) ;
#32 = EDGE_CURVE ( 'NONE', #142, #142, #278, .T. ) ;
#33 = COORDINATED_UNIVERSAL_TIME_OFFSET ( 1, 0, .AHEAD. ) ;
#34 = EDGE_LOOP ( 'NONE', ( #36 ) ) ;
#35 = VERTEX_POINT ( 'NONE', #56 ) ;
#36 = ORIENTED_EDGE ( 'NONE', *, *, #90, .T. ) ;
#37 = AXIS2_PLACEMENT_3D ( 'NONE', #210, #50, #189 ) ;
#38 = APPROVAL_STATUS ( 'not_yet_approved' ) ;
#39 = EDGE_LOOP ( 'NONE', ( #99 ) ) ;
#40 = DIRECTION ( 'NONE',  ( -3.491481338843133355E-15, 1.224646799147353454E-16, -1.000000000000000000 ) ) ;
#41 = CARTESIAN_POINT ( 'NONE',  ( 2.129803616694311221E-13, -7.470345474798856659E-15, 61.00000000000000000 ) ) ;
#42 = APPROVAL ( #105, 'UNSPECIFIED' ) ;
#43 = ORIENTED_EDGE ( 'NONE', *, *, #170, .T. ) ;
#44 = LOCAL_TIME ( 10, 36, 58.00000000000000000, #60 ) ;
#45 = FACE_OUTER_BOUND ( 'NONE', #162, .T. ) ;
#46 = FACE_OUTER_BOUND ( 'NONE', #198, .T. ) ;
#47 = UNCERTAINTY_MEASURE_WITH_UNIT (LENGTH_MEASURE( 1.000000000000000082E-05 ), #213, 'distance_accuracy_value', 'NONE');
#48 = DIRECTION ( 'NONE',  ( 4.275831445896959482E-31, 1.000000000000000000, 1.224646799147353454E-16 ) ) ;
#49 = SECURITY_CLASSIFICATION ( '', '', #150 ) ;
#50 = DIRECTION ( 'NONE',  ( -3.491481338843133355E-15, 1.224646799147353454E-16, -1.000000000000000000 ) ) ;
#51 = FACE_OUTER_BOUND ( 'NONE', #262, .T. ) ;
#52 = EDGE_CURVE ( 'NONE', #23, #23, #168, .T. ) ;
#53 = APPROVAL_ROLE ( '' ) ;
#54 = COORDINATED_UNIVERSAL_TIME_OFFSET ( 1, 0, .AHEAD. ) ;
#55 = ORIENTED_EDGE ( 'NONE', *, *, #148, .T. ) ;
#56 = CARTESIAN_POINT ( 'NONE',  ( 2.119329172677781757E-13, 1.499999999999994005, 60.69999999999999574 ) ) ;
#57 =( NAMED_UNIT ( * ) SI_UNIT ( $, .STERADIAN. ) SOLID_ANGLE_UNIT ( ) );
#58 = CARTESIAN_POINT ( 'NONE',  ( 3.491481338843133355E-14, 1.333499999999998575, 10.00000000000000000 ) ) ;
#59 = ORIENTED_EDGE ( 'NONE', *, *, #170, .F. ) ;
#60 = COORDINATED_UNIVERSAL_TIME_OFFSET ( 1, 0, .AHEAD. ) ;
#61 = CLOSED_SHELL ( 'NONE', ( #17, #113, #241, #174 ) ) ;
#62 = ADVANCED_FACE ( 'NONE', ( #107, #108 ), #84, .T. ) ;
#63 = DIRECTION ( 'NONE',  ( -3.491481338843133355E-15, 1.224646799147353454E-16, -1.000000000000000000 ) ) ;
#64 = FACE_OUTER_BOUND ( 'NONE', #9, .T. ) ;
#65 = CARTESIAN_POINT ( 'NONE',  ( -4.435064888397701552E-31, 1.555611355891334703E-32, -1.270253069680508249E-16 ) ) ;
#66 = EDGE_CURVE ( 'NONE', #116, #116, #243, .T. ) ;
#67 = AXIS2_PLACEMENT_3D ( 'NONE', #205, #272, #19 ) ;
#68 = ORIENTED_EDGE ( 'NONE', *, *, #90, .F. ) ;
#69 =( GEOMETRIC_REPRESENTATION_CONTEXT ( 3 ) GLOBAL_UNCERTAINTY_ASSIGNED_CONTEXT ( ( #47 ) ) GLOBAL_UNIT_ASSIGNED_CONTEXT ( ( #213, #5, #57 ) ) REPRESENTATION_CONTEXT ( 'NONE', 'WORKASPACE' ) );
#70 = DIRECTION ( 'NONE',  ( 0.0000000000000000000, 1.000000000000000000, 0.0000000000000000000 ) ) ;
#71 = PRODUCT_DEFINITION_SHAPE ( 'NONE', 'NONE',  #152 ) ;
#72 = DIRECTION ( 'NONE',  ( 4.275831445896959482E-31, 1.000000000000000000, 1.224646799147353454E-16 ) ) ;
#73 = DIRECTION ( 'NONE',  ( -3.491481338843133355E-15, 1.224646799147353454E-16, -1.000000000000000000 ) ) ;
#74 = LOCAL_TIME ( 10, 36, 58.00000000000000000, #286 ) ;
#75 = VERTEX_POINT ( 'NONE', #234 ) ;
#76 = DIRECTION ( 'NONE',  ( -3.491481338843133355E-15, 1.224646799147353454E-16, -1.000000000000000000 ) ) ;
#77 = CIRCLE ( 'NONE', #276, 1.124999999999998224 ) ;
#78 = CARTESIAN_POINT ( 'NONE',  ( 0.0000000000000000000, 0.0000000000000000000, 0.0000000000000000000 ) ) ;
#79 = ORIENTED_EDGE ( 'NONE', *, *, #32, .F. ) ;
#80 = AXIS2_PLACEMENT_3D ( 'NONE', #119, #167, #1 ) ;
#81 = APPROVAL_ROLE ( '' ) ;
#82 = MECHANICAL_CONTEXT ( 'NONE', #31, 'mechanical' ) ;
#83 = ADVANCED_FACE ( 'NONE', ( #64, #132 ), #122, .F. ) ;
#84 = CYLINDRICAL_SURFACE ( 'NONE', #283, 1.499999999999998668 ) ;
#85 = DIRECTION ( 'NONE',  ( 4.332800774774438367E-31, 1.000000000000000000, 1.219574997171547312E-16 ) ) ;
#86 = DIRECTION ( 'NONE',  ( 0.0000000000000000000, 1.000000000000000000, 0.0000000000000000000 ) ) ;
#87 = CIRCLE ( 'NONE', #104, 1.500000000000001332 ) ;
#88 = CARTESIAN_POINT ( 'NONE',  ( 2.129803616694311221E-13, -7.470345474798856659E-15, 61.00000000000000000 ) ) ;
#89 = DIRECTION ( 'NONE',  ( 4.275831445896959482E-31, 1.000000000000000000, 1.224646799147353454E-16 ) ) ;
#90 = EDGE_CURVE ( 'NONE', #254, #254, #160, .T. ) ;
#91 = CARTESIAN_POINT ( 'NONE',  ( 3.617570109905906359E-14, -1.268872786602183144E-15, 10.36113259337811954 ) ) ;
#92 = FACE_OUTER_BOUND ( 'NONE', #248, .T. ) ;
#93 = CARTESIAN_POINT ( 'NONE',  ( 0.0000000000000000000, 0.0000000000000000000, 0.0000000000000000000 ) ) ;
#94 = CC_DESIGN_APPROVAL ( #42, ( #152 ) ) ;
#95 = CARTESIAN_POINT ( 'NONE',  ( 8.849961221477469775E-14, -3.104148534859897544E-15, 25.34729635533384595 ) ) ;
#96 = CALENDAR_DATE ( 2021, 30, 11 ) ;
#97 = AXIS2_PLACEMENT_3D ( 'NONE', #291, #182, #266 ) ;
#98 = PERSON_AND_ORGANIZATION ( #146, #101 ) ;
#99 = ORIENTED_EDGE ( 'NONE', *, *, #209, .T. ) ;
#100 = DATE_AND_TIME ( #214, #2 ) ;
#101 = ORGANIZATION ( 'UNSPECIFIED', 'UNSPECIFIED', '' ) ;
#102 = ORIENTED_EDGE ( 'NONE', *, *, #117, .F. ) ;
#103 = CC_DESIGN_PERSON_AND_ORGANIZATION_ASSIGNMENT ( #194, #282, ( #49 ) ) ;
#104 = AXIS2_PLACEMENT_3D ( 'NONE', #165, #73, #192 ) ;
#105 = APPROVAL_STATUS ( 'not_yet_approved' ) ;
#106 = CALENDAR_DATE ( 2021, 30, 11 ) ;
#107 = FACE_OUTER_BOUND ( 'NONE', #183, .T. ) ;
#108 = FACE_OUTER_BOUND ( 'NONE', #179, .T. ) ;
#109 = ORIENTED_EDGE ( 'NONE', *, *, #117, .T. ) ;
#110 = ORIENTED_EDGE ( 'NONE', *, *, #255, .F. ) ;
#111 = ORIENTED_EDGE ( 'NONE', *, *, #66, .F. ) ;
#112 = DIRECTION ( 'NONE',  ( 0.0000000000000000000, 1.000000000000000000, 0.0000000000000000000 ) ) ;
#113 = ADVANCED_FACE ( 'NONE', ( #159, #161 ), #133, .T. ) ;
#114 = CARTESIAN_POINT ( 'NONE',  ( 9.532340403339405712E-14, -3.343494932497784210E-15, 27.30170800940854647 ) ) ;
#115 = PRODUCT_DEFINITION_FORMATION_WITH_SPECIFIED_SOURCE ( 'ANY', '', #6, .NOT_KNOWN. ) ;
#116 = VERTEX_POINT ( 'NONE', #143 ) ;
#117 = EDGE_CURVE ( 'NONE', #75, #75, #228, .T. ) ;
#118 = CONICAL_SURFACE ( 'NONE', #20, 1.200000000000001510, 0.7853981633974453924 ) ;
#119 = CARTESIAN_POINT ( 'NONE',  ( 3.491481338843133355E-14, -1.224646799147353454E-15, 10.00000000000000000 ) ) ;
#120 = DIRECTION ( 'NONE',  ( 3.491481338843133355E-15, -1.224646799147353454E-16, 1.000000000000000000 ) ) ;
#121 = LOCAL_TIME ( 10, 36, 58.00000000000000000, #197 ) ;
#122 = TOROIDAL_SURFACE ( 'NONE', #247, 3.124999999999999556, 2.000000000000000444 ) ;
#123 = VERTEX_POINT ( 'NONE', #58 ) ;
#124 = AXIS2_PLACEMENT_3D ( 'NONE', #229, #273, #48 ) ;
#125 = ADVANCED_FACE ( 'NONE', ( #26, #204 ), #186, .T. ) ;
#126 = PERSON_AND_ORGANIZATION_ROLE ( 'design_owner' ) ;
#127 = EDGE_LOOP ( 'NONE', ( #68 ) ) ;
#128 = CLOSED_SHELL ( 'NONE', ( #181, #7, #233, #83, #125, #62, #3, #299 ) ) ;
#129 = APPROVAL_ROLE ( '' ) ;
#130 = ORIENTED_EDGE ( 'NONE', *, *, #66, .T. ) ;
#131 = ORIENTED_EDGE ( 'NONE', *, *, #148, .F. ) ;
#132 = FACE_OUTER_BOUND ( 'NONE', #175, .T. ) ;
#133 = CONICAL_SURFACE ( 'NONE', #67, 1.333499999999998575, 0.5235987755982924874 ) ;
#134 = DIRECTION ( 'NONE',  ( 0.0000000000000000000, 1.000000000000000000, 0.0000000000000000000 ) ) ;
#135 = AXIS2_PLACEMENT_3D ( 'NONE', #93, #139, #89 ) ;
#136 = DIRECTION ( 'NONE',  ( -3.491481338843133355E-15, 1.224646799147353454E-16, -1.000000000000000000 ) ) ;
#137 = AXIS2_PLACEMENT_3D ( 'NONE', #78, #238, #171 ) ;
#138 = EDGE_CURVE ( 'NONE', #123, #123, #207, .T. ) ;
#139 = DIRECTION ( 'NONE',  ( -3.491481338843133355E-15, 1.224646799147353454E-16, -1.000000000000000000 ) ) ;
#140 = AXIS2_PLACEMENT_3D ( 'NONE', #265, #184, #134 ) ;
#141 = CYLINDRICAL_SURFACE ( 'NONE', #135, 1.124999999999998890 ) ;
#142 = VERTEX_POINT ( 'NONE', #230 ) ;
#143 = CARTESIAN_POINT ( 'NONE',  ( 9.532340403339405712E-14, 1.499999999999992673, 27.30170800940854647 ) ) ;
#144 = CIRCLE ( 'NONE', #10, 1.189162432702594252 ) ;
#145 = DIRECTION ( 'NONE',  ( 4.275831445896959482E-31, 1.000000000000000000, 1.224646799147353454E-16 ) ) ;
#146 = PERSON ( 'UNSPECIFIED', 'UNSPECIFIED', 'UNSPECIFIED', ('UNSPECIFIED'), ('UNSPECIFIED'), ('UNSPECIFIED') ) ;
#147 = APPROVAL_DATE_TIME ( #258, #27 ) ;
#148 = EDGE_CURVE ( 'NONE', #153, #153, #232, .T. ) ;
#149 = PERSON_AND_ORGANIZATION_ROLE ( 'creator' ) ;
#150 = SECURITY_CLASSIFICATION_LEVEL ( 'unclassified' ) ;
#151 = DATE_AND_TIME ( #256, #22 ) ;
#152 = PRODUCT_DEFINITION ( 'UNKNOWN', '', #115, #250 ) ;
#153 = VERTEX_POINT ( 'NONE', #237 ) ;
#154 = APPROVAL_PERSON_ORGANIZATION ( #98, #42, #81 ) ;
#155 = CALENDAR_DATE ( 2021, 30, 11 ) ;
#156 = CONICAL_SURFACE ( 'NONE', #298, 1.124999999999998224, 0.5235987755982922653 ) ;
#157 = FACE_OUTER_BOUND ( 'NONE', #240, .T. ) ;
#158 = CARTESIAN_POINT ( 'NONE',  ( 8.728703347107827472E-16, -3.061616997868381785E-17, 0.2499999999999998335 ) ) ;
#159 = FACE_BOUND ( 'NONE', #287, .T. ) ;
#160 = CIRCLE ( 'NONE', #193, 1.333499999999998575 ) ;
#161 = FACE_OUTER_BOUND ( 'NONE', #34, .T. ) ;
#162 = EDGE_LOOP ( 'NONE', ( #110 ) ) ;
#163 = AXIS2_PLACEMENT_3D ( 'NONE', #227, #188, #145 ) ;
#164 = CARTESIAN_POINT ( 'NONE',  ( 3.491481338843133355E-14, 9.999648350897919097E-33, 10.00000000000000000 ) ) ;
#165 = CARTESIAN_POINT ( 'NONE',  ( 2.119329172677781757E-13, -7.433606070824434221E-15, 60.69999999999999574 ) ) ;
#166 = PLANE ( 'NONE',  #124 ) ;
#167 = DIRECTION ( 'NONE',  ( -3.491481338843133355E-15, 1.224646799147353454E-16, -1.000000000000000000 ) ) ;
#168 = CIRCLE ( 'NONE', #140, 1.124999999999999778 ) ;
#169 = DIRECTION ( 'NONE',  ( 3.491481338843133355E-15, -1.224646799147353454E-16, 1.000000000000000000 ) ) ;
#170 = EDGE_CURVE ( 'NONE', #35, #35, #87, .T. ) ;
#171 = DIRECTION ( 'NONE',  ( 1.000000000000000000, 0.0000000000000000000, 0.0000000000000000000 ) ) ;
#172 = CC_DESIGN_APPROVAL ( #295, ( #49 ) ) ;
#173 = PERSON_AND_ORGANIZATION_ROLE ( 'creator' ) ;
#174 = ADVANCED_FACE ( 'NONE', ( #303 ), #190, .T. ) ;
#175 = EDGE_LOOP ( 'NONE', ( #109 ) ) ;
#176 = SHAPE_DEFINITION_REPRESENTATION ( #71, #225 ) ;
#177 = ORIENTED_EDGE ( 'NONE', *, *, #52, .T. ) ;
#178 = APPROVAL_PERSON_ORGANIZATION ( #236, #27, #53 ) ;
#179 = EDGE_LOOP ( 'NONE', ( #43 ) ) ;
#180 = FACE_OUTER_BOUND ( 'NONE', #39, .T. ) ;
#181 = ADVANCED_FACE ( 'NONE', ( #300 ), #21, .F. ) ;
#182 = DIRECTION ( 'NONE',  ( -3.491481338843133355E-15, 1.224646799147353454E-16, -1.000000000000000000 ) ) ;
#183 = EDGE_LOOP ( 'NONE', ( #111 ) ) ;
#184 = DIRECTION ( 'NONE',  ( -3.491481338843133355E-15, 1.224646799147353454E-16, -1.000000000000000000 ) ) ;
#185 = CC_DESIGN_DATE_AND_TIME_ASSIGNMENT ( #100, #8, ( #152 ) ) ;
#186 = CONICAL_SURFACE ( 'NONE', #259, 1.499999999999996003, 0.1745329251994266473 ) ;
#187 = ORIENTED_EDGE ( 'NONE', *, *, #138, .T. ) ;
#188 = DIRECTION ( 'NONE',  ( -3.491481338843133355E-15, 1.224646799147353454E-16, -1.000000000000000000 ) ) ;
#189 = DIRECTION ( 'NONE',  ( 0.0000000000000000000, 1.000000000000000000, 0.0000000000000000000 ) ) ;
#190 = PLANE ( 'NONE',  #219 ) ;
#191 = DIRECTION ( 'NONE',  ( -4.275831445896959482E-31, -1.000000000000000000, -1.224646799147353454E-16 ) ) ;
#192 = DIRECTION ( 'NONE',  ( 0.0000000000000000000, 1.000000000000000000, 0.0000000000000000000 ) ) ;
#193 = AXIS2_PLACEMENT_3D ( 'NONE', #158, #200, #85 ) ;
#194 = PERSON_AND_ORGANIZATION ( #146, #101 ) ;
#195 = APPLICATION_PROTOCOL_DEFINITION ( 'international standard', 'config_control_design', 1994, #296 ) ;
#196 = APPROVAL_STATUS ( 'not_yet_approved' ) ;
#197 = COORDINATED_UNIVERSAL_TIME_OFFSET ( 1, 0, .AHEAD. ) ;
#198 = EDGE_LOOP ( 'NONE', ( #177 ) ) ;
#199 = DIRECTION ( 'NONE',  ( 4.275831445896960358E-31, 1.000000000000000000, 1.224646799147353454E-16 ) ) ;
#200 = DIRECTION ( 'NONE',  ( -3.491481338843133355E-15, 1.224646799147353454E-16, -1.000000000000000000 ) ) ;
#201 = CC_DESIGN_PERSON_AND_ORGANIZATION_ASSIGNMENT ( #261, #126, ( #6 ) ) ;
#202 = ORIENTED_EDGE ( 'NONE', *, *, #32, .T. ) ;
#203 = EDGE_LOOP ( 'NONE', ( #297 ) ) ;
#204 = FACE_OUTER_BOUND ( 'NONE', #270, .T. ) ;
#205 = CARTESIAN_POINT ( 'NONE',  ( 8.728703347107827472E-16, -3.061616997868381785E-17, 0.2499999999999998335 ) ) ;
#206 = DIRECTION ( 'NONE',  ( 0.0000000000000000000, -1.000000000000000000, 0.0000000000000000000 ) ) ;
#207 = CIRCLE ( 'NONE', #80, 1.333499999999999908 ) ;
#208 = DIRECTION ( 'NONE',  ( -4.275831445896959482E-31, -1.000000000000000000, -1.224646799147353454E-16 ) ) ;
#209 = EDGE_CURVE ( 'NONE', #212, #212, #144, .T. ) ;
#210 = CARTESIAN_POINT ( 'NONE',  ( 3.491481338843133355E-14, -1.224646799147353454E-15, 10.00000000000000000 ) ) ;
#211 = APPLICATION_PROTOCOL_DEFINITION ( 'international standard', 'config_control_design', 1994, #31 ) ;
#212 = VERTEX_POINT ( 'NONE', #218 ) ;
#213 =( LENGTH_UNIT ( ) NAMED_UNIT ( * ) SI_UNIT ( .MILLI., .METRE. ) );
#214 = CALENDAR_DATE ( 2021, 30, 11 ) ;
#215 = MANIFOLD_SOLID_BREP ( 'Corps-Déplacer/Copier1[1]', #128 ) ;
#216 = ORIENTED_EDGE ( 'NONE', *, *, #209, .F. ) ;
#217 = MANIFOLD_SOLID_BREP ( 'Corps-Déplacer/Copier1[2]', #61 ) ;
#218 = CARTESIAN_POINT ( 'NONE',  ( -3.785471652766323589E-31, 1.189162432702594252, -1.084202172485504681E-16 ) ) ;
#219 = AXIS2_PLACEMENT_3D ( 'NONE', #164, #169, #191 ) ;
#220 = DATE_AND_TIME ( #155, #44 ) ;
#221 = DIRECTION ( 'NONE',  ( 0.0000000000000000000, 1.000000000000000000, 0.0000000000000000000 ) ) ;
#222 = FACE_BOUND ( 'NONE', #4, .T. ) ;
#223 = PLANE ( 'NONE',  #252 ) ;
#224 = FACE_BOUND ( 'NONE', #267, .T. ) ;
#225 = ADVANCED_BREP_SHAPE_REPRESENTATION ( '954075', ( #215, #217, #137 ), #69 ) ;
#226 = DIRECTION ( 'NONE',  ( -3.491481338843133355E-15, 1.224646799147353454E-16, -1.000000000000000000 ) ) ;
#227 = CARTESIAN_POINT ( 'NONE',  ( 0.0000000000000000000, 0.0000000000000000000, 0.0000000000000000000 ) ) ;
#228 = CIRCLE ( 'NONE', #290, 1.155384493975579741 ) ;
#229 = CARTESIAN_POINT ( 'NONE',  ( 2.129803616694311221E-13, 8.998558695971049855E-33, 61.00000000000000000 ) ) ;
#230 = CARTESIAN_POINT ( 'NONE',  ( 2.129803616694311221E-13, 1.199999999999993960, 61.00000000000000000 ) ) ;
#231 = CARTESIAN_POINT ( 'NONE',  ( 8.728703347107833388E-16, 1.333499999999998575, 0.2500000000000000000 ) ) ;
#232 = CIRCLE ( 'NONE', #37, 1.333499999999999908 ) ;
#233 = ADVANCED_FACE ( 'NONE', ( #45, #46 ), #141, .T. ) ;
#234 = CARTESIAN_POINT ( 'NONE',  ( 8.849961221477469775E-14, 1.155384493975576854, 25.34729635533384595 ) ) ;
#235 = APPROVAL_DATE_TIME ( #151, #42 ) ;
#236 = PERSON_AND_ORGANIZATION ( #146, #101 ) ;
#237 = CARTESIAN_POINT ( 'NONE',  ( 3.491481338843133355E-14, 1.333499999999998575, 10.00000000000000000 ) ) ;
#238 = DIRECTION ( 'NONE',  ( 0.0000000000000000000, 0.0000000000000000000, 1.000000000000000000 ) ) ;
#239 = CC_DESIGN_DATE_AND_TIME_ASSIGNMENT ( #11, #288, ( #49 ) ) ;
#240 = EDGE_LOOP ( 'NONE', ( #59 ) ) ;
#241 = ADVANCED_FACE ( 'NONE', ( #302, #51 ), #301, .T. ) ;
#242 = APPROVAL_DATE_TIME ( #220, #295 ) ;
#243 = CIRCLE ( 'NONE', #97, 1.499999999999996003 ) ;
#244 = DIRECTION ( 'NONE',  ( 3.491481338843133355E-15, -1.224646799147353454E-16, 1.000000000000000000 ) ) ;
#245 = CARTESIAN_POINT ( 'NONE',  ( 8.728703347107833388E-14, -3.035766082959412415E-15, 25.00000000000000000 ) ) ;
#246 = ORIENTED_EDGE ( 'NONE', *, *, #52, .F. ) ;
#247 = AXIS2_PLACEMENT_3D ( 'NONE', #245, #40, #15 ) ;
#248 = EDGE_LOOP ( 'NONE', ( #79 ) ) ;
#249 = EDGE_LOOP ( 'NONE', ( #102 ) ) ;
#250 = DESIGN_CONTEXT ( 'detailed design', #296, 'design' ) ;
#251 = DIRECTION ( 'NONE',  ( -3.491481338843133355E-15, 1.224646799147353454E-16, -1.000000000000000000 ) ) ;
#252 = AXIS2_PLACEMENT_3D ( 'NONE', #65, #244, #12 ) ;
#253 = CARTESIAN_POINT ( 'NONE',  ( 3.491481338843133355E-14, 9.999648350897919097E-33, 10.00000000000000000 ) ) ;
#254 = VERTEX_POINT ( 'NONE', #231 ) ;
#255 = EDGE_CURVE ( 'NONE', #284, #284, #77, .T. ) ;
#256 = CALENDAR_DATE ( 2021, 30, 11 ) ;
#257 = CARTESIAN_POINT ( 'NONE',  ( 3.617570109905906359E-14, 1.124999999999996891, 10.36113259337811954 ) ) ;
#258 = DATE_AND_TIME ( #96, #74 ) ;
#259 = AXIS2_PLACEMENT_3D ( 'NONE', #114, #120, #206 ) ;
#260 = PRODUCT_RELATED_PRODUCT_CATEGORY ( 'detail', '', ( #6 ) ) ;
#261 = PERSON_AND_ORGANIZATION ( #146, #101 ) ;
#262 = EDGE_LOOP ( 'NONE', ( #187 ) ) ;
#263 = PERSON_AND_ORGANIZATION ( #146, #101 ) ;
#264 = EDGE_LOOP ( 'NONE', ( #131 ) ) ;
#265 = CARTESIAN_POINT ( 'NONE',  ( 8.728703347107833388E-14, -3.061616997868383831E-15, 25.00000000000000000 ) ) ;
#266 = DIRECTION ( 'NONE',  ( 0.0000000000000000000, 1.000000000000000000, 0.0000000000000000000 ) ) ;
#267 = EDGE_LOOP ( 'NONE', ( #294 ) ) ;
#268 = EDGE_LOOP ( 'NONE', ( #55 ) ) ;
#269 = AXIS2_PLACEMENT_3D ( 'NONE', #253, #277, #208 ) ;
#270 = EDGE_LOOP ( 'NONE', ( #130 ) ) ;
#271 = CC_DESIGN_PERSON_AND_ORGANIZATION_ASSIGNMENT ( #280, #173, ( #115 ) ) ;
#272 = DIRECTION ( 'NONE',  ( 3.491481338843133355E-15, -1.224646799147353454E-16, 1.000000000000000000 ) ) ;
#273 = DIRECTION ( 'NONE',  ( -3.491481338843133355E-15, 1.224646799147353454E-16, -1.000000000000000000 ) ) ;
#274 = CARTESIAN_POINT ( 'NONE',  ( -8.870129776795403105E-31, 3.111222711782669406E-32, -2.540506139361016497E-16 ) ) ;
#275 = CARTESIAN_POINT ( 'NONE',  ( 8.728703347107833388E-14, 1.124999999999996669, 25.00000000000000000 ) ) ;
#276 = AXIS2_PLACEMENT_3D ( 'NONE', #91, #251, #70 ) ;
#277 = DIRECTION ( 'NONE',  ( 3.491481338843133355E-15, -1.224646799147353454E-16, 1.000000000000000000 ) ) ;
#278 = CIRCLE ( 'NONE', #25, 1.200000000000001510 ) ;
#279 = PERSON_AND_ORGANIZATION ( #146, #101 ) ;
#280 = PERSON_AND_ORGANIZATION ( #146, #101 ) ;
#281 = CC_DESIGN_APPROVAL ( #27, ( #115 ) ) ;
#282 = PERSON_AND_ORGANIZATION_ROLE ( 'classification_officer' ) ;
#283 = AXIS2_PLACEMENT_3D ( 'NONE', #14, #63, #199 ) ;
#284 = VERTEX_POINT ( 'NONE', #257 ) ;
#285 = CC_DESIGN_PERSON_AND_ORGANIZATION_ASSIGNMENT ( #28, #149, ( #152 ) ) ;
#286 = COORDINATED_UNIVERSAL_TIME_OFFSET ( 1, 0, .AHEAD. ) ;
#287 = EDGE_LOOP ( 'NONE', ( #216 ) ) ;
#288 = DATE_TIME_ROLE ( 'classification_date' ) ;
#289 = CARTESIAN_POINT ( 'NONE',  ( 3.617570109905906359E-14, -1.268872786602183144E-15, 10.36113259337811954 ) ) ;
#290 = AXIS2_PLACEMENT_3D ( 'NONE', #95, #24, #112 ) ;
#291 = CARTESIAN_POINT ( 'NONE',  ( 9.532340403339405712E-14, -3.343494932497784210E-15, 27.30170800940854647 ) ) ;
#292 = DIRECTION ( 'NONE',  ( 0.0000000000000000000, 1.000000000000000000, 0.0000000000000000000 ) ) ;
#293 = CC_DESIGN_SECURITY_CLASSIFICATION ( #49, ( #115 ) ) ;
#294 = ORIENTED_EDGE ( 'NONE', *, *, #255, .T. ) ;
#295 = APPROVAL ( #38, 'UNSPECIFIED' ) ;
#296 = APPLICATION_CONTEXT ( 'configuration controlled 3d designs of mechanical parts and assemblies' ) ;
#297 = ORIENTED_EDGE ( 'NONE', *, *, #138, .F. ) ;
#298 = AXIS2_PLACEMENT_3D ( 'NONE', #289, #18, #221 ) ;
#299 = ADVANCED_FACE ( 'NONE', ( #92 ), #166, .F. ) ;
#300 = FACE_OUTER_BOUND ( 'NONE', #268, .T. ) ;
#301 = CYLINDRICAL_SURFACE ( 'NONE', #163, 1.333499999999999241 ) ;
#302 = FACE_OUTER_BOUND ( 'NONE', #127, .T. ) ;
#303 = FACE_OUTER_BOUND ( 'NONE', #203, .T. ) ;
ENDSEC;
END-ISO-10303-21;
