ISO-10303-21;
HEADER;
FILE_DESCRIPTION (( 'STEP AP203' ),
    '1' );
FILE_NAME ('953937.step',
    '2021-11-30T09:57:11',
    ( '' ),
    ( '' ),
    'SwSTEP 2.0',
    'SolidWorks 2019',
    '' );
FILE_SCHEMA (( 'CONFIG_CONTROL_DESIGN' ));
ENDSEC;

DATA;
#1 = AXIS2_PLACEMENT_3D ( 'NONE', #16, #131, #11 ) ;
#2 = APPROVAL_STATUS ( 'not_yet_approved' ) ;
#3 = ORIENTED_EDGE ( 'NONE', *, *, #97, .T. ) ;
#4 = EDGE_CURVE ( 'NONE', #252, #252, #75, .T. ) ;
#5 = PERSON_AND_ORGANIZATION ( #133, #146 ) ;
#6 = EDGE_LOOP ( 'NONE', ( #228 ) ) ;
#7 = AXIS2_PLACEMENT_3D ( 'NONE', #109, #86, #205 ) ;
#8 = LOCAL_TIME ( 10, 57, 11.00000000000000000, #122 ) ;
#9 = APPLICATION_PROTOCOL_DEFINITION ( 'international standard', 'config_control_design', 1994, #67 ) ;
#10 = APPROVAL_STATUS ( 'not_yet_approved' ) ;
#11 = DIRECTION ( 'NONE',  ( 0.0000000000000000000, 1.000000000000000000, 0.0000000000000000000 ) ) ;
#12 = AXIS2_PLACEMENT_3D ( 'NONE', #247, #249, #34 ) ;
#13 = CC_DESIGN_APPROVAL ( #61, ( #206 ) ) ;
#14 = DIRECTION ( 'NONE',  ( -3.491481338843133355E-15, 1.224646799147353454E-16, -1.000000000000000000 ) ) ;
#15 = SHAPE_DEFINITION_REPRESENTATION ( #64, #278 ) ;
#16 = CARTESIAN_POINT ( 'NONE',  ( 3.491481338843133355E-14, -1.224646799147353454E-15, 10.00000000000000000 ) ) ;
#17 = FACE_OUTER_BOUND ( 'NONE', #96, .T. ) ;
#18 = ORIENTED_EDGE ( 'NONE', *, *, #4, .T. ) ;
#19 = FACE_OUTER_BOUND ( 'NONE', #292, .T. ) ;
#20 = ADVANCED_FACE ( 'NONE', ( #226, #81 ), #85, .F. ) ;
#21 = FACE_OUTER_BOUND ( 'NONE', #208, .T. ) ;
#22 = CARTESIAN_POINT ( 'NONE',  ( 3.491481338843133355E-14, 1.448499999999998566, 10.00000000000000000 ) ) ;
#23 = FACE_OUTER_BOUND ( 'NONE', #99, .T. ) ;
#24 = PLANE ( 'NONE',  #29 ) ;
#25 = AXIS2_PLACEMENT_3D ( 'NONE', #116, #166, #216 ) ;
#26 = DATE_AND_TIME ( #263, #8 ) ;
#27 = PERSON_AND_ORGANIZATION_ROLE ( 'classification_officer' ) ;
#28 = AXIS2_PLACEMENT_3D ( 'NONE', #54, #56, #156 ) ;
#29 = AXIS2_PLACEMENT_3D ( 'NONE', #66, #88, #276 ) ;
#30 = CARTESIAN_POINT ( 'NONE',  ( 8.728703347107833388E-14, -3.035766082959412415E-15, 25.00000000000000000 ) ) ;
#31 = CARTESIAN_POINT ( 'NONE',  ( 9.284825720332949933E-14, -3.256678468404562521E-15, 26.59279778195630328 ) ) ;
#32 = AXIS2_PLACEMENT_3D ( 'NONE', #217, #95, #68 ) ;
#33 = CARTESIAN_POINT ( 'NONE',  ( 2.129803616694311221E-13, -7.470345474798856659E-15, 61.00000000000000000 ) ) ;
#34 = DIRECTION ( 'NONE',  ( 0.0000000000000000000, 1.000000000000000000, 0.0000000000000000000 ) ) ;
#35 = DIRECTION ( 'NONE',  ( 3.988808997695349487E-31, 1.000000000000000000, 1.122749919729553599E-16 ) ) ;
#36 = APPROVAL_PERSON_ORGANIZATION ( #94, #141, #196 ) ;
#37 = DIRECTION ( 'NONE',  ( 0.0000000000000000000, -1.000000000000000000, 0.0000000000000000000 ) ) ;
#38 = CARTESIAN_POINT ( 'NONE',  ( 8.849961221477469775E-14, 1.280384493975576854, 25.34729635533384595 ) ) ;
#39 = ADVANCED_FACE ( 'NONE', ( #17, #110 ), #105, .T. ) ;
#40 = FACE_BOUND ( 'NONE', #220, .T. ) ;
#41 = CIRCLE ( 'NONE', #169, 1.200000000000001510 ) ;
#42 = CONICAL_SURFACE ( 'NONE', #76, 1.249999999999998224, 0.5235987755982938197 ) ;
#43 = CARTESIAN_POINT ( 'NONE',  ( 8.728703347107833388E-16, 1.448499999999998566, 0.2500000000000000000 ) ) ;
#44 = PERSON_AND_ORGANIZATION ( #133, #146 ) ;
#45 = EDGE_LOOP ( 'NONE', ( #104 ) ) ;
#46 = APPROVAL_PERSON_ORGANIZATION ( #44, #61, #108 ) ;
#47 = EDGE_LOOP ( 'NONE', ( #121 ) ) ;
#48 = PERSON_AND_ORGANIZATION ( #133, #146 ) ;
#49 = ORIENTED_EDGE ( 'NONE', *, *, #78, .T. ) ;
#50 = ADVANCED_FACE ( 'NONE', ( #57 ), #244, .F. ) ;
#51 = CALENDAR_DATE ( 2021, 30, 11 ) ;
#52 =( GEOMETRIC_REPRESENTATION_CONTEXT ( 3 ) GLOBAL_UNCERTAINTY_ASSIGNED_CONTEXT ( ( #283 ) ) GLOBAL_UNIT_ASSIGNED_CONTEXT ( ( #71, #102, #257 ) ) REPRESENTATION_CONTEXT ( 'NONE', 'WORKASPACE' ) );
#53 = CARTESIAN_POINT ( 'NONE',  ( 3.491481338843133355E-14, -1.224646799147353454E-15, 10.00000000000000000 ) ) ;
#54 = CARTESIAN_POINT ( 'NONE',  ( -4.680925196536775766E-31, 1.641847543394391324E-32, -1.340670260631481087E-16 ) ) ;
#55 = EDGE_CURVE ( 'NONE', #212, #212, #293, .T. ) ;
#56 = DIRECTION ( 'NONE',  ( 3.491481338843133355E-15, -1.224646799147353454E-16, 1.000000000000000000 ) ) ;
#57 = FACE_OUTER_BOUND ( 'NONE', #45, .T. ) ;
#58 = ORIENTED_EDGE ( 'NONE', *, *, #221, .T. ) ;
#59 = CC_DESIGN_PERSON_AND_ORGANIZATION_ASSIGNMENT ( #98, #287, ( #203 ) ) ;
#60 = CARTESIAN_POINT ( 'NONE',  ( -3.785471652766321837E-31, 1.304162432702594243, -1.084202172485504187E-16 ) ) ;
#61 = APPROVAL ( #10, 'UNSPECIFIED' ) ;
#62 = DIRECTION ( 'NONE',  ( 4.275831445896959482E-31, 1.000000000000000000, 1.224646799147353454E-16 ) ) ;
#63 = DIRECTION ( 'NONE',  ( -3.491481338843133355E-15, 1.224646799147353454E-16, -1.000000000000000000 ) ) ;
#64 = PRODUCT_DEFINITION_SHAPE ( 'NONE', 'NONE',  #203 ) ;
#65 = CARTESIAN_POINT ( 'NONE',  ( 0.0000000000000000000, 0.0000000000000000000, 0.0000000000000000000 ) ) ;
#66 = CARTESIAN_POINT ( 'NONE',  ( 3.491481338843133355E-14, 1.086201022592848804E-32, 10.00000000000000000 ) ) ;
#67 = APPLICATION_CONTEXT ( 'configuration controlled 3d designs of mechanical parts and assemblies' ) ;
#68 = DIRECTION ( 'NONE',  ( 1.000000000000000000, 0.0000000000000000000, 0.0000000000000000000 ) ) ;
#69 = ORIENTED_EDGE ( 'NONE', *, *, #149, .F. ) ;
#70 = EDGE_CURVE ( 'NONE', #91, #91, #114, .T. ) ;
#71 =( LENGTH_UNIT ( ) NAMED_UNIT ( * ) SI_UNIT ( .MILLI., .METRE. ) );
#72 = EDGE_LOOP ( 'NONE', ( #155 ) ) ;
#73 = CC_DESIGN_PERSON_AND_ORGANIZATION_ASSIGNMENT ( #241, #27, ( #206 ) ) ;
#74 = DATE_TIME_ROLE ( 'creation_date' ) ;
#75 = CIRCLE ( 'NONE', #1, 1.448499999999999899 ) ;
#76 = AXIS2_PLACEMENT_3D ( 'NONE', #113, #300, #168 ) ;
#77 = PERSON_AND_ORGANIZATION_ROLE ( 'creator' ) ;
#78 = EDGE_CURVE ( 'NONE', #194, #194, #41, .T. ) ;
#79 = ORIENTED_EDGE ( 'NONE', *, *, #70, .T. ) ;
#80 = COORDINATED_UNIVERSAL_TIME_OFFSET ( 1, 0, .AHEAD. ) ;
#81 = FACE_OUTER_BOUND ( 'NONE', #47, .T. ) ;
#82 = DIRECTION ( 'NONE',  ( -3.491481338843133355E-15, 1.224646799147353454E-16, -1.000000000000000000 ) ) ;
#83 = PLANE ( 'NONE',  #28 ) ;
#84 = DIRECTION ( 'NONE',  ( -3.491481338843133355E-15, 1.224646799147353454E-16, -1.000000000000000000 ) ) ;
#85 = TOROIDAL_SURFACE ( 'NONE', #233, 3.250000000000000000, 2.000000000000000444 ) ;
#86 = DIRECTION ( 'NONE',  ( -3.491481338843133355E-15, 1.224646799147353454E-16, -1.000000000000000000 ) ) ;
#87 = CARTESIAN_POINT ( 'NONE',  ( 9.284825720332949933E-14, -3.256678468404562521E-15, 26.59279778195630328 ) ) ;
#88 = DIRECTION ( 'NONE',  ( 3.491481338843133355E-15, -1.224646799147353454E-16, 1.000000000000000000 ) ) ;
#89 = CARTESIAN_POINT ( 'NONE',  ( 2.119329172677781757E-13, -7.433606070824434221E-15, 60.69999999999999574 ) ) ;
#90 = FACE_OUTER_BOUND ( 'NONE', #224, .T. ) ;
#91 = VERTEX_POINT ( 'NONE', #138 ) ;
#92 = APPLICATION_PROTOCOL_DEFINITION ( 'international standard', 'config_control_design', 1994, #103 ) ;
#93 = CLOSED_SHELL ( 'NONE', ( #137, #125, #39, #197 ) ) ;
#94 = PERSON_AND_ORGANIZATION ( #133, #146 ) ;
#95 = DIRECTION ( 'NONE',  ( 0.0000000000000000000, 0.0000000000000000000, 1.000000000000000000 ) ) ;
#96 = EDGE_LOOP ( 'NONE', ( #148 ) ) ;
#97 = EDGE_CURVE ( 'NONE', #171, #171, #111, .T. ) ;
#98 = PERSON_AND_ORGANIZATION ( #133, #146 ) ;
#99 = EDGE_LOOP ( 'NONE', ( #271 ) ) ;
#100 = AXIS2_PLACEMENT_3D ( 'NONE', #132, #181, #126 ) ;
#101 = LOCAL_TIME ( 10, 57, 11.00000000000000000, #80 ) ;
#102 =( NAMED_UNIT ( * ) PLANE_ANGLE_UNIT ( ) SI_UNIT ( $, .RADIAN. ) );
#103 = APPLICATION_CONTEXT ( 'configuration controlled 3d designs of mechanical parts and assemblies' ) ;
#104 = ORIENTED_EDGE ( 'NONE', *, *, #78, .F. ) ;
#105 = CYLINDRICAL_SURFACE ( 'NONE', #100, 1.448499999999999233 ) ;
#106 = AXIS2_PLACEMENT_3D ( 'NONE', #53, #185, #274 ) ;
#107 = DIRECTION ( 'NONE',  ( -3.491481338843133355E-15, 1.224646799147353454E-16, -1.000000000000000000 ) ) ;
#108 = APPROVAL_ROLE ( '' ) ;
#109 = CARTESIAN_POINT ( 'NONE',  ( 8.849961221477469775E-14, -3.104148534859897544E-15, 25.34729635533384595 ) ) ;
#110 = FACE_OUTER_BOUND ( 'NONE', #298, .T. ) ;
#111 = CIRCLE ( 'NONE', #106, 1.448499999999999899 ) ;
#112 = DIRECTION ( 'NONE',  ( 4.275831445896960358E-31, 1.000000000000000000, 1.224646799147353454E-16 ) ) ;
#113 = CARTESIAN_POINT ( 'NONE',  ( 3.611522686833350719E-14, -1.266751636124733055E-15, 10.34381208530242979 ) ) ;
#114 = CIRCLE ( 'NONE', #175, 1.499999999999996003 ) ;
#115 = VERTEX_POINT ( 'NONE', #43 ) ;
#116 = CARTESIAN_POINT ( 'NONE',  ( 8.728703347107833388E-14, -3.061616997868383831E-15, 25.00000000000000000 ) ) ;
#117 = CC_DESIGN_DATE_AND_TIME_ASSIGNMENT ( #152, #286, ( #206 ) ) ;
#118 = CC_DESIGN_APPROVAL ( #141, ( #203 ) ) ;
#119 = EDGE_LOOP ( 'NONE', ( #204 ) ) ;
#120 = CARTESIAN_POINT ( 'NONE',  ( 2.119329172677781757E-13, 1.499999999999994005, 60.69999999999999574 ) ) ;
#121 = ORIENTED_EDGE ( 'NONE', *, *, #55, .T. ) ;
#122 = COORDINATED_UNIVERSAL_TIME_OFFSET ( 1, 0, .AHEAD. ) ;
#123 = CC_DESIGN_PERSON_AND_ORGANIZATION_ASSIGNMENT ( #178, #242, ( #153 ) ) ;
#124 = SECURITY_CLASSIFICATION_LEVEL ( 'unclassified' ) ;
#125 = ADVANCED_FACE ( 'NONE', ( #154, #269 ), #163, .T. ) ;
#126 = DIRECTION ( 'NONE',  ( 4.275831445896959482E-31, 1.000000000000000000, 1.224646799147353454E-16 ) ) ;
#127 = CALENDAR_DATE ( 2021, 30, 11 ) ;
#128 = ORIENTED_EDGE ( 'NONE', *, *, #157, .T. ) ;
#129 = CIRCLE ( 'NONE', #170, 1.304162432702594243 ) ;
#130 = DIRECTION ( 'NONE',  ( 3.491481338843133355E-15, -1.224646799147353454E-16, 1.000000000000000000 ) ) ;
#131 = DIRECTION ( 'NONE',  ( -3.491481338843133355E-15, 1.224646799147353454E-16, -1.000000000000000000 ) ) ;
#132 = CARTESIAN_POINT ( 'NONE',  ( 0.0000000000000000000, 0.0000000000000000000, 0.0000000000000000000 ) ) ;
#133 = PERSON ( 'UNSPECIFIED', 'UNSPECIFIED', 'UNSPECIFIED', ('UNSPECIFIED'), ('UNSPECIFIED'), ('UNSPECIFIED') ) ;
#134 = CLOSED_SHELL ( 'NONE', ( #189, #248, #180, #20, #193, #227, #261, #50 ) ) ;
#135 = AXIS2_PLACEMENT_3D ( 'NONE', #235, #251, #231 ) ;
#136 = DIRECTION ( 'NONE',  ( -3.491481338843133355E-15, 1.224646799147353454E-16, -1.000000000000000000 ) ) ;
#137 = ADVANCED_FACE ( 'NONE', ( #294 ), #83, .F. ) ;
#138 = CARTESIAN_POINT ( 'NONE',  ( 9.284825720332949933E-14, 1.499999999999992673, 26.59279778195630328 ) ) ;
#139 = CC_DESIGN_SECURITY_CLASSIFICATION ( #206, ( #153 ) ) ;
#140 = PLANE ( 'NONE',  #135 ) ;
#141 = APPROVAL ( #2, 'UNSPECIFIED' ) ;
#142 = FACE_BOUND ( 'NONE', #72, .T. ) ;
#143 = APPROVAL_DATE_TIME ( #26, #141 ) ;
#144 = AXIS2_PLACEMENT_3D ( 'NONE', #272, #130, #159 ) ;
#145 = APPROVAL_PERSON_ORGANIZATION ( #219, #254, #202 ) ;
#146 = ORGANIZATION ( 'UNSPECIFIED', 'UNSPECIFIED', '' ) ;
#147 = EDGE_LOOP ( 'NONE', ( #18 ) ) ;
#148 = ORIENTED_EDGE ( 'NONE', *, *, #157, .F. ) ;
#149 = EDGE_CURVE ( 'NONE', #256, #256, #285, .T. ) ;
#150 = VERTEX_POINT ( 'NONE', #290 ) ;
#151 = ORIENTED_EDGE ( 'NONE', *, *, #284, .T. ) ;
#152 = DATE_AND_TIME ( #179, #101 ) ;
#153 = PRODUCT_DEFINITION_FORMATION_WITH_SPECIFIED_SOURCE ( 'ANY', '', #291, .NOT_KNOWN. ) ;
#154 = FACE_BOUND ( 'NONE', #119, .T. ) ;
#155 = ORIENTED_EDGE ( 'NONE', *, *, #55, .F. ) ;
#156 = DIRECTION ( 'NONE',  ( -4.275831445896959482E-31, -1.000000000000000000, -1.224646799147353454E-16 ) ) ;
#157 = EDGE_CURVE ( 'NONE', #115, #115, #210, .T. ) ;
#158 = MANIFOLD_SOLID_BREP ( 'Corps-Déplacer/Copier1[1]', #134 ) ;
#159 = DIRECTION ( 'NONE',  ( -3.988808997695349487E-31, -1.000000000000000000, -1.122749919729553599E-16 ) ) ;
#160 = PRODUCT_RELATED_PRODUCT_CATEGORY ( 'detail', '', ( #291 ) ) ;
#161 = ORIENTED_EDGE ( 'NONE', *, *, #279, .F. ) ;
#162 = CARTESIAN_POINT ( 'NONE',  ( 2.129803616694311221E-13, -7.470345474798856659E-15, 61.00000000000000000 ) ) ;
#163 = CONICAL_SURFACE ( 'NONE', #144, 1.448499999999998566, 0.5235987755982924874 ) ;
#164 = AXIS2_PLACEMENT_3D ( 'NONE', #250, #136, #112 ) ;
#165 = DIRECTION ( 'NONE',  ( -3.491481338843133355E-15, 1.224646799147353454E-16, -1.000000000000000000 ) ) ;
#166 = DIRECTION ( 'NONE',  ( -3.491481338843133355E-15, 1.224646799147353454E-16, -1.000000000000000000 ) ) ;
#167 = DESIGN_CONTEXT ( 'detailed design', #103, 'design' ) ;
#168 = DIRECTION ( 'NONE',  ( 0.0000000000000000000, 1.000000000000000000, 0.0000000000000000000 ) ) ;
#169 = AXIS2_PLACEMENT_3D ( 'NONE', #33, #84, #187 ) ;
#170 = AXIS2_PLACEMENT_3D ( 'NONE', #191, #165, #62 ) ;
#171 = VERTEX_POINT ( 'NONE', #22 ) ;
#172 = CALENDAR_DATE ( 2021, 30, 11 ) ;
#173 = COORDINATED_UNIVERSAL_TIME_OFFSET ( 1, 0, .AHEAD. ) ;
#174 = EDGE_LOOP ( 'NONE', ( #239 ) ) ;
#175 = AXIS2_PLACEMENT_3D ( 'NONE', #31, #207, #295 ) ;
#176 = APPROVAL_STATUS ( 'not_yet_approved' ) ;
#177 = EDGE_LOOP ( 'NONE', ( #240 ) ) ;
#178 = PERSON_AND_ORGANIZATION ( #133, #146 ) ;
#179 = CALENDAR_DATE ( 2021, 30, 11 ) ;
#180 = ADVANCED_FACE ( 'NONE', ( #90, #21 ), #192, .T. ) ;
#181 = DIRECTION ( 'NONE',  ( -3.491481338843133355E-15, 1.224646799147353454E-16, -1.000000000000000000 ) ) ;
#182 = CONICAL_SURFACE ( 'NONE', #229, 1.499999999999996003, 0.1745329251994272302 ) ;
#183 = ORIENTED_EDGE ( 'NONE', *, *, #149, .T. ) ;
#184 = APPROVAL_DATE_TIME ( #266, #61 ) ;
#185 = DIRECTION ( 'NONE',  ( -3.491481338843133355E-15, 1.224646799147353454E-16, -1.000000000000000000 ) ) ;
#186 = AXIS2_PLACEMENT_3D ( 'NONE', #268, #107, #245 ) ;
#187 = DIRECTION ( 'NONE',  ( 0.0000000000000000000, 1.000000000000000000, 0.0000000000000000000 ) ) ;
#188 = FACE_OUTER_BOUND ( 'NONE', #174, .T. ) ;
#189 = ADVANCED_FACE ( 'NONE', ( #236 ), #140, .F. ) ;
#190 = FACE_OUTER_BOUND ( 'NONE', #201, .T. ) ;
#191 = CARTESIAN_POINT ( 'NONE',  ( -9.361850393073551532E-31, 3.283695086788782648E-32, -2.681340521262962174E-16 ) ) ;
#192 = CYLINDRICAL_SURFACE ( 'NONE', #255, 1.249999999999998890 ) ;
#193 = ADVANCED_FACE ( 'NONE', ( #142, #190 ), #182, .T. ) ;
#194 = VERTEX_POINT ( 'NONE', #232 ) ;
#195 = APPROVAL_DATE_TIME ( #289, #254 ) ;
#196 = APPROVAL_ROLE ( '' ) ;
#197 = ADVANCED_FACE ( 'NONE', ( #188 ), #24, .T. ) ;
#198 = DATE_AND_TIME ( #51, #234 ) ;
#199 = COORDINATED_UNIVERSAL_TIME_OFFSET ( 1, 0, .AHEAD. ) ;
#200 = CONICAL_SURFACE ( 'NONE', #237, 1.200000000000001510, 0.7853981633974453924 ) ;
#201 = EDGE_LOOP ( 'NONE', ( #79 ) ) ;
#202 = APPROVAL_ROLE ( '' ) ;
#203 = PRODUCT_DEFINITION ( 'UNKNOWN', '', #153, #167 ) ;
#204 = ORIENTED_EDGE ( 'NONE', *, *, #221, .F. ) ;
#205 = DIRECTION ( 'NONE',  ( 0.0000000000000000000, 1.000000000000000000, 0.0000000000000000000 ) ) ;
#206 = SECURITY_CLASSIFICATION ( '', '', #124 ) ;
#207 = DIRECTION ( 'NONE',  ( -3.491481338843133355E-15, 1.224646799147353454E-16, -1.000000000000000000 ) ) ;
#208 = EDGE_LOOP ( 'NONE', ( #151 ) ) ;
#209 = DIRECTION ( 'NONE',  ( 4.275831445896960358E-31, 1.000000000000000000, 1.224646799147353454E-16 ) ) ;
#210 = CIRCLE ( 'NONE', #267, 1.448499999999998566 ) ;
#211 = AXIS2_PLACEMENT_3D ( 'NONE', #89, #63, #275 ) ;
#212 = VERTEX_POINT ( 'NONE', #38 ) ;
#213 = FACE_OUTER_BOUND ( 'NONE', #262, .T. ) ;
#214 = DIRECTION ( 'NONE',  ( 4.275831445896960358E-31, 1.000000000000000000, 1.224646799147353454E-16 ) ) ;
#215 = CARTESIAN_POINT ( 'NONE',  ( 3.611522686833350719E-14, 1.249999999999996891, 10.34381208530242979 ) ) ;
#216 = DIRECTION ( 'NONE',  ( 0.0000000000000000000, 1.000000000000000000, 0.0000000000000000000 ) ) ;
#217 = CARTESIAN_POINT ( 'NONE',  ( 0.0000000000000000000, 0.0000000000000000000, 0.0000000000000000000 ) ) ;
#218 = CC_DESIGN_DATE_AND_TIME_ASSIGNMENT ( #198, #74, ( #203 ) ) ;
#219 = PERSON_AND_ORGANIZATION ( #133, #146 ) ;
#220 = EDGE_LOOP ( 'NONE', ( #49 ) ) ;
#221 = EDGE_CURVE ( 'NONE', #302, #302, #129, .T. ) ;
#222 = CC_DESIGN_PERSON_AND_ORGANIZATION_ASSIGNMENT ( #48, #77, ( #153 ) ) ;
#223 = CARTESIAN_POINT ( 'NONE',  ( 8.728703347107827472E-16, -3.061616997868381785E-17, 0.2499999999999998335 ) ) ;
#224 = EDGE_LOOP ( 'NONE', ( #69 ) ) ;
#225 = EDGE_LOOP ( 'NONE', ( #183 ) ) ;
#226 = FACE_OUTER_BOUND ( 'NONE', #177, .T. ) ;
#227 = ADVANCED_FACE ( 'NONE', ( #230, #23 ), #281, .T. ) ;
#228 = ORIENTED_EDGE ( 'NONE', *, *, #70, .F. ) ;
#229 = AXIS2_PLACEMENT_3D ( 'NONE', #87, #282, #37 ) ;
#230 = FACE_OUTER_BOUND ( 'NONE', #6, .T. ) ;
#231 = DIRECTION ( 'NONE',  ( -4.275831445896959482E-31, -1.000000000000000000, -1.224646799147353454E-16 ) ) ;
#232 = CARTESIAN_POINT ( 'NONE',  ( 2.129803616694311221E-13, 1.199999999999993960, 61.00000000000000000 ) ) ;
#233 = AXIS2_PLACEMENT_3D ( 'NONE', #30, #14, #209 ) ;
#234 = LOCAL_TIME ( 10, 57, 11.00000000000000000, #173 ) ;
#235 = CARTESIAN_POINT ( 'NONE',  ( 3.491481338843133355E-14, 1.086201022592848804E-32, 10.00000000000000000 ) ) ;
#236 = FACE_OUTER_BOUND ( 'NONE', #147, .T. ) ;
#237 = AXIS2_PLACEMENT_3D ( 'NONE', #162, #299, #280 ) ;
#238 = MECHANICAL_CONTEXT ( 'NONE', #67, 'mechanical' ) ;
#239 = ORIENTED_EDGE ( 'NONE', *, *, #97, .F. ) ;
#240 = ORIENTED_EDGE ( 'NONE', *, *, #284, .F. ) ;
#241 = PERSON_AND_ORGANIZATION ( #133, #146 ) ;
#242 = PERSON_AND_ORGANIZATION_ROLE ( 'design_supplier' ) ;
#243 = CIRCLE ( 'NONE', #25, 1.249999999999999778 ) ;
#244 = PLANE ( 'NONE',  #186 ) ;
#245 = DIRECTION ( 'NONE',  ( 4.275831445896959482E-31, 1.000000000000000000, 1.224646799147353454E-16 ) ) ;
#246 = CC_DESIGN_APPROVAL ( #254, ( #153 ) ) ;
#247 = CARTESIAN_POINT ( 'NONE',  ( 3.611522686833350719E-14, -1.266751636124733055E-15, 10.34381208530242979 ) ) ;
#248 = ADVANCED_FACE ( 'NONE', ( #213, #301 ), #42, .T. ) ;
#249 = DIRECTION ( 'NONE',  ( -3.491481338843133355E-15, 1.224646799147353454E-16, -1.000000000000000000 ) ) ;
#250 = CARTESIAN_POINT ( 'NONE',  ( 0.0000000000000000000, 0.0000000000000000000, 0.0000000000000000000 ) ) ;
#251 = DIRECTION ( 'NONE',  ( 3.491481338843133355E-15, -1.224646799147353454E-16, 1.000000000000000000 ) ) ;
#252 = VERTEX_POINT ( 'NONE', #303 ) ;
#253 = DIRECTION ( 'NONE',  ( -3.491481338843133355E-15, 1.224646799147353454E-16, -1.000000000000000000 ) ) ;
#254 = APPROVAL ( #176, 'UNSPECIFIED' ) ;
#255 = AXIS2_PLACEMENT_3D ( 'NONE', #65, #253, #214 ) ;
#256 = VERTEX_POINT ( 'NONE', #215 ) ;
#257 =( NAMED_UNIT ( * ) SI_UNIT ( $, .STERADIAN. ) SOLID_ANGLE_UNIT ( ) );
#258 = MANIFOLD_SOLID_BREP ( 'Corps-Déplacer/Copier1[2]', #93 ) ;
#259 = EDGE_LOOP ( 'NONE', ( #58 ) ) ;
#260 = VERTEX_POINT ( 'NONE', #120 ) ;
#261 = ADVANCED_FACE ( 'NONE', ( #19, #40 ), #200, .T. ) ;
#262 = EDGE_LOOP ( 'NONE', ( #264 ) ) ;
#263 = CALENDAR_DATE ( 2021, 30, 11 ) ;
#264 = ORIENTED_EDGE ( 'NONE', *, *, #4, .F. ) ;
#265 = PERSON_AND_ORGANIZATION_ROLE ( 'design_owner' ) ;
#266 = DATE_AND_TIME ( #127, #273 ) ;
#267 = AXIS2_PLACEMENT_3D ( 'NONE', #223, #82, #35 ) ;
#268 = CARTESIAN_POINT ( 'NONE',  ( 2.129803616694311221E-13, 8.998558695971049855E-33, 61.00000000000000000 ) ) ;
#269 = FACE_OUTER_BOUND ( 'NONE', #297, .T. ) ;
#270 = COORDINATED_UNIVERSAL_TIME_OFFSET ( 1, 0, .AHEAD. ) ;
#271 = ORIENTED_EDGE ( 'NONE', *, *, #279, .T. ) ;
#272 = CARTESIAN_POINT ( 'NONE',  ( 8.728703347107827472E-16, -3.061616997868381785E-17, 0.2499999999999998335 ) ) ;
#273 = LOCAL_TIME ( 10, 57, 11.00000000000000000, #270 ) ;
#274 = DIRECTION ( 'NONE',  ( 0.0000000000000000000, 1.000000000000000000, 0.0000000000000000000 ) ) ;
#275 = DIRECTION ( 'NONE',  ( 0.0000000000000000000, 1.000000000000000000, 0.0000000000000000000 ) ) ;
#276 = DIRECTION ( 'NONE',  ( -4.275831445896959482E-31, -1.000000000000000000, -1.224646799147353454E-16 ) ) ;
#277 = LOCAL_TIME ( 10, 57, 11.00000000000000000, #199 ) ;
#278 = ADVANCED_BREP_SHAPE_REPRESENTATION ( '953937', ( #158, #258, #32 ), #52 ) ;
#279 = EDGE_CURVE ( 'NONE', #260, #260, #288, .T. ) ;
#280 = DIRECTION ( 'NONE',  ( 0.0000000000000000000, 1.000000000000000000, 0.0000000000000000000 ) ) ;
#281 = CYLINDRICAL_SURFACE ( 'NONE', #164, 1.499999999999998668 ) ;
#282 = DIRECTION ( 'NONE',  ( 3.491481338843133355E-15, -1.224646799147353454E-16, 1.000000000000000000 ) ) ;
#283 = UNCERTAINTY_MEASURE_WITH_UNIT (LENGTH_MEASURE( 1.000000000000000082E-05 ), #71, 'distance_accuracy_value', 'NONE');
#284 = EDGE_CURVE ( 'NONE', #150, #150, #243, .T. ) ;
#285 = CIRCLE ( 'NONE', #12, 1.249999999999998224 ) ;
#286 = DATE_TIME_ROLE ( 'classification_date' ) ;
#287 = PERSON_AND_ORGANIZATION_ROLE ( 'creator' ) ;
#288 = CIRCLE ( 'NONE', #211, 1.500000000000001332 ) ;
#289 = DATE_AND_TIME ( #172, #277 ) ;
#290 = CARTESIAN_POINT ( 'NONE',  ( 8.728703347107833388E-14, 1.249999999999996669, 25.00000000000000000 ) ) ;
#291 = PRODUCT ( '953937', '953937', '', ( #238 ) ) ;
#292 = EDGE_LOOP ( 'NONE', ( #161 ) ) ;
#293 = CIRCLE ( 'NONE', #7, 1.280384493975579963 ) ;
#294 = FACE_OUTER_BOUND ( 'NONE', #259, .T. ) ;
#295 = DIRECTION ( 'NONE',  ( 0.0000000000000000000, 1.000000000000000000, 0.0000000000000000000 ) ) ;
#296 = CC_DESIGN_PERSON_AND_ORGANIZATION_ASSIGNMENT ( #5, #265, ( #291 ) ) ;
#297 = EDGE_LOOP ( 'NONE', ( #128 ) ) ;
#298 = EDGE_LOOP ( 'NONE', ( #3 ) ) ;
#299 = DIRECTION ( 'NONE',  ( -3.491481338843133355E-15, 1.224646799147353454E-16, -1.000000000000000000 ) ) ;
#300 = DIRECTION ( 'NONE',  ( -3.491481338843133355E-15, 1.224646799147353454E-16, -1.000000000000000000 ) ) ;
#301 = FACE_BOUND ( 'NONE', #225, .T. ) ;
#302 = VERTEX_POINT ( 'NONE', #60 ) ;
#303 = CARTESIAN_POINT ( 'NONE',  ( 3.491481338843133355E-14, 1.448499999999998566, 10.00000000000000000 ) ) ;
ENDSEC;
END-ISO-10303-21;
