ISO-10303-21;
HEADER;
FILE_DESCRIPTION (( 'STEP AP203' ),
    '1' );
FILE_NAME ('953881.step',
    '2021-11-30T09:57:11',
    ( '' ),
    ( '' ),
    'SwSTEP 2.0',
    'SolidWorks 2019',
    '' );
FILE_SCHEMA (( 'CONFIG_CONTROL_DESIGN' ));
ENDSEC;

DATA;
#1 = CIRCLE ( 'NONE', #263, 1.408500000000000085 ) ;
#2 = PERSON ( 'UNSPECIFIED', 'UNSPECIFIED', 'UNSPECIFIED', ('UNSPECIFIED'), ('UNSPECIFIED'), ('UNSPECIFIED') ) ;
#3 = CARTESIAN_POINT ( 'NONE',  ( 8.728703347107833388E-16, 1.408499999999998753, 0.2500000000000000000 ) ) ;
#4 = PRODUCT_RELATED_PRODUCT_CATEGORY ( 'detail', '', ( #145 ) ) ;
#5 = COORDINATED_UNIVERSAL_TIME_OFFSET ( 1, 0, .AHEAD. ) ;
#6 = ADVANCED_BREP_SHAPE_REPRESENTATION ( '953881', ( #161, #259, #151 ), #56 ) ;
#7 = VERTEX_POINT ( 'NONE', #281 ) ;
#8 = AXIS2_PLACEMENT_3D ( 'NONE', #44, #229, #288 ) ;
#9 = SECURITY_CLASSIFICATION ( '', '', #10 ) ;
#10 = SECURITY_CLASSIFICATION_LEVEL ( 'unclassified' ) ;
#11 = ORIENTED_EDGE ( 'NONE', *, *, #210, .T. ) ;
#12 = AXIS2_PLACEMENT_3D ( 'NONE', #92, #185, #110 ) ;
#13 = PERSON_AND_ORGANIZATION ( #2, #188 ) ;
#14 = ORIENTED_EDGE ( 'NONE', *, *, #116, .F. ) ;
#15 = EDGE_LOOP ( 'NONE', ( #264 ) ) ;
#16 = CC_DESIGN_PERSON_AND_ORGANIZATION_ASSIGNMENT ( #87, #32, ( #269 ) ) ;
#17 = EDGE_LOOP ( 'NONE', ( #62 ) ) ;
#18 = LOCAL_TIME ( 10, 57, 11.00000000000000000, #5 ) ;
#19 = DIRECTION ( 'NONE',  ( -3.491481338843133355E-15, 1.224646799147353454E-16, -1.000000000000000000 ) ) ;
#20 = DIRECTION ( 'NONE',  ( 0.0000000000000000000, 1.000000000000000000, 0.0000000000000000000 ) ) ;
#21 = FACE_OUTER_BOUND ( 'NONE', #205, .T. ) ;
#22 = EDGE_CURVE ( 'NONE', #7, #7, #149, .T. ) ;
#23 = DIRECTION ( 'NONE',  ( -3.491481338843133355E-15, 1.224646799147353454E-16, -1.000000000000000000 ) ) ;
#24 = DIRECTION ( 'NONE',  ( -3.491481338843133355E-15, 1.224646799147353454E-16, -1.000000000000000000 ) ) ;
#25 = CARTESIAN_POINT ( 'NONE',  ( 2.129803616694311221E-13, 1.199999999999993960, 61.00000000000000000 ) ) ;
#26 = CIRCLE ( 'NONE', #284, 1.408499999999998753 ) ;
#27 = VERTEX_POINT ( 'NONE', #286 ) ;
#28 = VERTEX_POINT ( 'NONE', #25 ) ;
#29 = CARTESIAN_POINT ( 'NONE',  ( 8.728703347107833388E-14, 1.199999999999997069, 25.00000000000000000 ) ) ;
#30 = AXIS2_PLACEMENT_3D ( 'NONE', #255, #19, #187 ) ;
#31 = AXIS2_PLACEMENT_3D ( 'NONE', #167, #143, #186 ) ;
#32 = PERSON_AND_ORGANIZATION_ROLE ( 'design_supplier' ) ;
#33 = APPLICATION_CONTEXT ( 'configuration controlled 3d designs of mechanical parts and assemblies' ) ;
#34 = COORDINATED_UNIVERSAL_TIME_OFFSET ( 1, 0, .AHEAD. ) ;
#35 = EDGE_LOOP ( 'NONE', ( #156 ) ) ;
#36 = DATE_AND_TIME ( #265, #40 ) ;
#37 = ADVANCED_FACE ( 'NONE', ( #139, #294 ), #39, .F. ) ;
#38 = ORIENTED_EDGE ( 'NONE', *, *, #261, .F. ) ;
#39 = TOROIDAL_SURFACE ( 'NONE', #79, 3.200000000000000178, 2.000000000000000444 ) ;
#40 = LOCAL_TIME ( 10, 57, 11.00000000000000000, #83 ) ;
#41 = DATE_TIME_ROLE ( 'classification_date' ) ;
#42 = ORIENTED_EDGE ( 'NONE', *, *, #297, .F. ) ;
#43 = CARTESIAN_POINT ( 'NONE',  ( -9.190817135237673818E-31, 3.223704695482309001E-32, -2.632354649297068154E-16 ) ) ;
#44 = CARTESIAN_POINT ( 'NONE',  ( 3.617570109905906359E-14, -1.268872786602183144E-15, 10.36113259337811954 ) ) ;
#45 = FACE_OUTER_BOUND ( 'NONE', #295, .T. ) ;
#46 = AXIS2_PLACEMENT_3D ( 'NONE', #98, #238, #192 ) ;
#47 = DIRECTION ( 'NONE',  ( 4.275831445896958607E-31, 1.000000000000000000, 1.224646799147353454E-16 ) ) ;
#48 = DIRECTION ( 'NONE',  ( -4.275831445896959482E-31, -1.000000000000000000, -1.224646799147353454E-16 ) ) ;
#49 = EDGE_CURVE ( 'NONE', #103, #103, #249, .T. ) ;
#50 = CARTESIAN_POINT ( 'NONE',  ( 0.0000000000000000000, 0.0000000000000000000, 0.0000000000000000000 ) ) ;
#51 = AXIS2_PLACEMENT_3D ( 'NONE', #94, #189, #74 ) ;
#52 = CC_DESIGN_SECURITY_CLASSIFICATION ( #9, ( #269 ) ) ;
#53 = CARTESIAN_POINT ( 'NONE',  ( 2.129803616694311221E-13, 8.998558695971049855E-33, 61.00000000000000000 ) ) ;
#54 = ADVANCED_FACE ( 'NONE', ( #159, #250 ), #104, .T. ) ;
#55 = VERTEX_POINT ( 'NONE', #3 ) ;
#56 =( GEOMETRIC_REPRESENTATION_CONTEXT ( 3 ) GLOBAL_UNCERTAINTY_ASSIGNED_CONTEXT ( ( #121 ) ) GLOBAL_UNIT_ASSIGNED_CONTEXT ( ( #127, #220, #78 ) ) REPRESENTATION_CONTEXT ( 'NONE', 'WORKASPACE' ) );
#57 = CARTESIAN_POINT ( 'NONE',  ( 0.0000000000000000000, 0.0000000000000000000, 0.0000000000000000000 ) ) ;
#58 = CYLINDRICAL_SURFACE ( 'NONE', #235, 1.499999999999998668 ) ;
#59 = EDGE_CURVE ( 'NONE', #199, #199, #183, .T. ) ;
#60 = PERSON_AND_ORGANIZATION_ROLE ( 'design_owner' ) ;
#61 = AXIS2_PLACEMENT_3D ( 'NONE', #53, #212, #71 ) ;
#62 = ORIENTED_EDGE ( 'NONE', *, *, #22, .F. ) ;
#63 = APPROVAL ( #123, 'UNSPECIFIED' ) ;
#64 = ORIENTED_EDGE ( 'NONE', *, *, #297, .T. ) ;
#65 = SHAPE_DEFINITION_REPRESENTATION ( #173, #6 ) ;
#66 = CONICAL_SURFACE ( 'NONE', #76, 1.408499999999998753, 0.5235987755982918213 ) ;
#67 = PERSON_AND_ORGANIZATION_ROLE ( 'creator' ) ;
#68 = ORIENTED_EDGE ( 'NONE', *, *, #59, .T. ) ;
#69 = EDGE_LOOP ( 'NONE', ( #203 ) ) ;
#70 = PLANE ( 'NONE',  #100 ) ;
#71 = DIRECTION ( 'NONE',  ( 4.275831445896959482E-31, 1.000000000000000000, 1.224646799147353454E-16 ) ) ;
#72 = APPROVAL ( #177, 'UNSPECIFIED' ) ;
#73 = DIRECTION ( 'NONE',  ( -3.491481338843133355E-15, 1.224646799147353454E-16, -1.000000000000000000 ) ) ;
#74 = DIRECTION ( 'NONE',  ( -4.275831445896959482E-31, -1.000000000000000000, -1.224646799147353454E-16 ) ) ;
#75 = CARTESIAN_POINT ( 'NONE',  ( 8.728703347107833388E-14, -3.061616997868383831E-15, 25.00000000000000000 ) ) ;
#76 = AXIS2_PLACEMENT_3D ( 'NONE', #193, #217, #153 ) ;
#77 = ADVANCED_FACE ( 'NONE', ( #170 ), #70, .F. ) ;
#78 =( NAMED_UNIT ( * ) SI_UNIT ( $, .STERADIAN. ) SOLID_ANGLE_UNIT ( ) );
#79 = AXIS2_PLACEMENT_3D ( 'NONE', #88, #267, #182 ) ;
#80 = CC_DESIGN_APPROVAL ( #302, ( #269 ) ) ;
#81 = ADVANCED_FACE ( 'NONE', ( #296 ), #117, .F. ) ;
#82 = CARTESIAN_POINT ( 'NONE',  ( 2.119329172677781757E-13, 1.499999999999994005, 60.69999999999999574 ) ) ;
#83 = COORDINATED_UNIVERSAL_TIME_OFFSET ( 1, 0, .AHEAD. ) ;
#84 = EDGE_LOOP ( 'NONE', ( #64 ) ) ;
#85 = ADVANCED_FACE ( 'NONE', ( #21, #298 ), #90, .T. ) ;
#86 = ORIENTED_EDGE ( 'NONE', *, *, #116, .T. ) ;
#87 = PERSON_AND_ORGANIZATION ( #2, #188 ) ;
#88 = CARTESIAN_POINT ( 'NONE',  ( 8.728703347107833388E-14, -3.035766082959412415E-15, 25.00000000000000000 ) ) ;
#89 = ORIENTED_EDGE ( 'NONE', *, *, #22, .T. ) ;
#90 = CONICAL_SURFACE ( 'NONE', #30, 1.200000000000001510, 0.7853981633974453924 ) ;
#91 = AXIS2_PLACEMENT_3D ( 'NONE', #166, #168, #115 ) ;
#92 = CARTESIAN_POINT ( 'NONE',  ( 3.617570109905906359E-14, -1.268872786602183144E-15, 10.36113259337811954 ) ) ;
#93 = FACE_BOUND ( 'NONE', #245, .T. ) ;
#94 = CARTESIAN_POINT ( 'NONE',  ( 3.491481338843133355E-14, 1.056205826939611844E-32, 10.00000000000000000 ) ) ;
#95 = APPROVAL_PERSON_ORGANIZATION ( #241, #63, #214 ) ;
#96 = CARTESIAN_POINT ( 'NONE',  ( 2.129803616694311221E-13, -7.470345474798856659E-15, 61.00000000000000000 ) ) ;
#97 = DIRECTION ( 'NONE',  ( -3.491481338843133355E-15, 1.224646799147353454E-16, -1.000000000000000000 ) ) ;
#98 = CARTESIAN_POINT ( 'NONE',  ( 0.0000000000000000000, 0.0000000000000000000, 0.0000000000000000000 ) ) ;
#99 = CARTESIAN_POINT ( 'NONE',  ( 3.491481338843133355E-14, 1.408499999999998753, 10.00000000000000000 ) ) ;
#100 = AXIS2_PLACEMENT_3D ( 'NONE', #120, #233, #48 ) ;
#101 = VERTEX_POINT ( 'NONE', #218 ) ;
#102 = APPLICATION_PROTOCOL_DEFINITION ( 'international standard', 'config_control_design', 1994, #215 ) ;
#103 = VERTEX_POINT ( 'NONE', #175 ) ;
#104 = CONICAL_SURFACE ( 'NONE', #8, 1.199999999999998179, 0.5235987755982927094 ) ;
#105 = DIRECTION ( 'NONE',  ( 0.0000000000000000000, 0.0000000000000000000, 1.000000000000000000 ) ) ;
#106 = PERSON_AND_ORGANIZATION ( #2, #188 ) ;
#107 = EDGE_LOOP ( 'NONE', ( #136 ) ) ;
#108 = AXIS2_PLACEMENT_3D ( 'NONE', #96, #256, #20 ) ;
#109 = APPROVAL_STATUS ( 'not_yet_approved' ) ;
#110 = DIRECTION ( 'NONE',  ( 0.0000000000000000000, 1.000000000000000000, 0.0000000000000000000 ) ) ;
#111 = DATE_TIME_ROLE ( 'creation_date' ) ;
#112 = ORIENTED_EDGE ( 'NONE', *, *, #210, .F. ) ;
#113 = CC_DESIGN_PERSON_AND_ORGANIZATION_ASSIGNMENT ( #222, #67, ( #137 ) ) ;
#114 = EDGE_LOOP ( 'NONE', ( #247 ) ) ;
#115 = DIRECTION ( 'NONE',  ( 0.0000000000000000000, 1.000000000000000000, 0.0000000000000000000 ) ) ;
#116 = EDGE_CURVE ( 'NONE', #171, #171, #206, .T. ) ;
#117 = PLANE ( 'NONE',  #51 ) ;
#118 = AXIS2_PLACEMENT_3D ( 'NONE', #43, #254, #225 ) ;
#119 = APPROVAL_PERSON_ORGANIZATION ( #106, #72, #131 ) ;
#120 = CARTESIAN_POINT ( 'NONE',  ( -4.595408567618836909E-31, 1.611852347741154500E-32, -1.316177324648534077E-16 ) ) ;
#121 = UNCERTAINTY_MEASURE_WITH_UNIT (LENGTH_MEASURE( 1.000000000000000082E-05 ), #127, 'distance_accuracy_value', 'NONE');
#122 = CYLINDRICAL_SURFACE ( 'NONE', #201, 1.408499999999999419 ) ;
#123 = APPROVAL_STATUS ( 'not_yet_approved' ) ;
#124 = DIRECTION ( 'NONE',  ( 1.000000000000000000, 0.0000000000000000000, 0.0000000000000000000 ) ) ;
#125 = PERSON_AND_ORGANIZATION ( #2, #188 ) ;
#126 = FACE_OUTER_BOUND ( 'NONE', #84, .T. ) ;
#127 =( LENGTH_UNIT ( ) NAMED_UNIT ( * ) SI_UNIT ( .MILLI., .METRE. ) );
#128 = CONICAL_SURFACE ( 'NONE', #31, 1.499999999999996003, 0.1745329251994265918 ) ;
#129 = ADVANCED_FACE ( 'NONE', ( #234 ), #257, .T. ) ;
#130 = APPROVAL_DATE_TIME ( #154, #63 ) ;
#131 = APPROVAL_ROLE ( '' ) ;
#132 = EDGE_LOOP ( 'NONE', ( #68 ) ) ;
#133 = PERSON_AND_ORGANIZATION ( #2, #188 ) ;
#134 = EDGE_LOOP ( 'NONE', ( #14 ) ) ;
#135 = APPROVAL_DATE_TIME ( #262, #72 ) ;
#136 = ORIENTED_EDGE ( 'NONE', *, *, #49, .T. ) ;
#137 = PRODUCT_DEFINITION ( 'UNKNOWN', '', #269, #279 ) ;
#138 = CARTESIAN_POINT ( 'NONE',  ( 8.849961221477469775E-14, -3.104148534859897544E-15, 25.34729635533384595 ) ) ;
#139 = FACE_OUTER_BOUND ( 'NONE', #268, .T. ) ;
#140 = AXIS2_PLACEMENT_3D ( 'NONE', #276, #213, #208 ) ;
#141 = AXIS2_PLACEMENT_3D ( 'NONE', #283, #219, #152 ) ;
#142 = CYLINDRICAL_SURFACE ( 'NONE', #46, 1.199999999999999289 ) ;
#143 = DIRECTION ( 'NONE',  ( 3.491481338843133355E-15, -1.224646799147353454E-16, 1.000000000000000000 ) ) ;
#144 = APPROVAL_PERSON_ORGANIZATION ( #13, #302, #204 ) ;
#145 = PRODUCT ( '953881', '953881', '', ( #150 ) ) ;
#146 = FACE_OUTER_BOUND ( 'NONE', #252, .T. ) ;
#147 = DIRECTION ( 'NONE',  ( 3.491481338843133355E-15, -1.224646799147353454E-16, 1.000000000000000000 ) ) ;
#148 = DIRECTION ( 'NONE',  ( -3.491481338843133355E-15, 1.224646799147353454E-16, -1.000000000000000000 ) ) ;
#149 = CIRCLE ( 'NONE', #12, 1.199999999999998179 ) ;
#150 = MECHANICAL_CONTEXT ( 'NONE', #215, 'mechanical' ) ;
#151 = AXIS2_PLACEMENT_3D ( 'NONE', #57, #105, #124 ) ;
#152 = DIRECTION ( 'NONE',  ( 0.0000000000000000000, 1.000000000000000000, 0.0000000000000000000 ) ) ;
#153 = DIRECTION ( 'NONE',  ( -4.102087208492518447E-31, -1.000000000000000000, -1.154634901475511513E-16 ) ) ;
#154 = DATE_AND_TIME ( #246, #18 ) ;
#155 = EDGE_LOOP ( 'NONE', ( #112 ) ) ;
#156 = ORIENTED_EDGE ( 'NONE', *, *, #169, .T. ) ;
#157 = PERSON_AND_ORGANIZATION_ROLE ( 'creator' ) ;
#158 = CC_DESIGN_PERSON_AND_ORGANIZATION_ASSIGNMENT ( #125, #60, ( #145 ) ) ;
#159 = FACE_OUTER_BOUND ( 'NONE', #134, .T. ) ;
#160 = EDGE_LOOP ( 'NONE', ( #266 ) ) ;
#161 = MANIFOLD_SOLID_BREP ( 'Corps-Déplacer/Copier1[1]', #289 ) ;
#162 = ORIENTED_EDGE ( 'NONE', *, *, #49, .F. ) ;
#163 = EDGE_CURVE ( 'NONE', #27, #27, #1, .T. ) ;
#164 = FACE_BOUND ( 'NONE', #114, .T. ) ;
#165 = AXIS2_PLACEMENT_3D ( 'NONE', #138, #230, #271 ) ;
#166 = CARTESIAN_POINT ( 'NONE',  ( 9.383831593535531740E-14, -3.291405054041851197E-15, 26.87636187293719914 ) ) ;
#167 = CARTESIAN_POINT ( 'NONE',  ( 9.383831593535531740E-14, -3.291405054041851197E-15, 26.87636187293719914 ) ) ;
#168 = DIRECTION ( 'NONE',  ( -3.491481338843133355E-15, 1.224646799147353454E-16, -1.000000000000000000 ) ) ;
#169 = EDGE_CURVE ( 'NONE', #28, #28, #184, .T. ) ;
#170 = FACE_OUTER_BOUND ( 'NONE', #107, .T. ) ;
#171 = VERTEX_POINT ( 'NONE', #99 ) ;
#172 = CLOSED_SHELL ( 'NONE', ( #77, #272, #224, #129 ) ) ;
#173 = PRODUCT_DEFINITION_SHAPE ( 'NONE', 'NONE',  #137 ) ;
#174 = CARTESIAN_POINT ( 'NONE',  ( 0.0000000000000000000, 0.0000000000000000000, 0.0000000000000000000 ) ) ;
#175 = CARTESIAN_POINT ( 'NONE',  ( -3.785471652766321837E-31, 1.264162432702594652, -1.084202172485504187E-16 ) ) ;
#176 = ADVANCED_FACE ( 'NONE', ( #164, #146 ), #128, .T. ) ;
#177 = APPROVAL_STATUS ( 'not_yet_approved' ) ;
#178 = EDGE_LOOP ( 'NONE', ( #270 ) ) ;
#179 = LOCAL_TIME ( 10, 57, 11.00000000000000000, #223 ) ;
#180 = EDGE_LOOP ( 'NONE', ( #227 ) ) ;
#181 = ADVANCED_FACE ( 'NONE', ( #45 ), #191, .F. ) ;
#182 = DIRECTION ( 'NONE',  ( 4.275831445896959482E-31, 1.000000000000000000, 1.224646799147353454E-16 ) ) ;
#183 = CIRCLE ( 'NONE', #165, 1.230384493975580584 ) ;
#184 = CIRCLE ( 'NONE', #108, 1.200000000000001510 ) ;
#185 = DIRECTION ( 'NONE',  ( -3.491481338843133355E-15, 1.224646799147353454E-16, -1.000000000000000000 ) ) ;
#186 = DIRECTION ( 'NONE',  ( 0.0000000000000000000, -1.000000000000000000, 0.0000000000000000000 ) ) ;
#187 = DIRECTION ( 'NONE',  ( 0.0000000000000000000, 1.000000000000000000, 0.0000000000000000000 ) ) ;
#188 = ORGANIZATION ( 'UNSPECIFIED', 'UNSPECIFIED', '' ) ;
#189 = DIRECTION ( 'NONE',  ( 3.491481338843133355E-15, -1.224646799147353454E-16, 1.000000000000000000 ) ) ;
#190 = EDGE_CURVE ( 'NONE', #55, #55, #26, .T. ) ;
#191 = PLANE ( 'NONE',  #61 ) ;
#192 = DIRECTION ( 'NONE',  ( 4.275831445896959482E-31, 1.000000000000000000, 1.224646799147353454E-16 ) ) ;
#193 = CARTESIAN_POINT ( 'NONE',  ( 8.728703347107827472E-16, -3.061616997868381785E-17, 0.2499999999999998335 ) ) ;
#194 = CC_DESIGN_DATE_AND_TIME_ASSIGNMENT ( #293, #41, ( #9 ) ) ;
#195 = VERTEX_POINT ( 'NONE', #29 ) ;
#196 = CARTESIAN_POINT ( 'NONE',  ( 8.849961221477469775E-14, 1.230384493975577698, 25.34729635533384595 ) ) ;
#197 = AXIS2_PLACEMENT_3D ( 'NONE', #75, #24, #207 ) ;
#198 = CC_DESIGN_PERSON_AND_ORGANIZATION_ASSIGNMENT ( #287, #157, ( #269 ) ) ;
#199 = VERTEX_POINT ( 'NONE', #196 ) ;
#200 = EDGE_LOOP ( 'NONE', ( #86 ) ) ;
#201 = AXIS2_PLACEMENT_3D ( 'NONE', #50, #23, #47 ) ;
#202 = COORDINATED_UNIVERSAL_TIME_OFFSET ( 1, 0, .AHEAD. ) ;
#203 = ORIENTED_EDGE ( 'NONE', *, *, #163, .F. ) ;
#204 = APPROVAL_ROLE ( '' ) ;
#205 = EDGE_LOOP ( 'NONE', ( #42 ) ) ;
#206 = CIRCLE ( 'NONE', #140, 1.408500000000000085 ) ;
#207 = DIRECTION ( 'NONE',  ( 0.0000000000000000000, 1.000000000000000000, 0.0000000000000000000 ) ) ;
#208 = DIRECTION ( 'NONE',  ( 0.0000000000000000000, 1.000000000000000000, 0.0000000000000000000 ) ) ;
#209 = DIRECTION ( 'NONE',  ( 4.102087208492518447E-31, 1.000000000000000000, 1.154634901475511513E-16 ) ) ;
#210 = EDGE_CURVE ( 'NONE', #101, #101, #221, .T. ) ;
#211 = LOCAL_TIME ( 10, 57, 11.00000000000000000, #202 ) ;
#212 = DIRECTION ( 'NONE',  ( -3.491481338843133355E-15, 1.224646799147353454E-16, -1.000000000000000000 ) ) ;
#213 = DIRECTION ( 'NONE',  ( -3.491481338843133355E-15, 1.224646799147353454E-16, -1.000000000000000000 ) ) ;
#214 = APPROVAL_ROLE ( '' ) ;
#215 = APPLICATION_CONTEXT ( 'configuration controlled 3d designs of mechanical parts and assemblies' ) ;
#216 = CC_DESIGN_APPROVAL ( #72, ( #9 ) ) ;
#217 = DIRECTION ( 'NONE',  ( 3.491481338843133355E-15, -1.224646799147353454E-16, 1.000000000000000000 ) ) ;
#218 = CARTESIAN_POINT ( 'NONE',  ( 9.383831593535531740E-14, 1.499999999999992673, 26.87636187293719914 ) ) ;
#219 = DIRECTION ( 'NONE',  ( -3.491481338843133355E-15, 1.224646799147353454E-16, -1.000000000000000000 ) ) ;
#220 =( NAMED_UNIT ( * ) PLANE_ANGLE_UNIT ( ) SI_UNIT ( $, .RADIAN. ) );
#221 = CIRCLE ( 'NONE', #91, 1.499999999999996003 ) ;
#222 = PERSON_AND_ORGANIZATION ( #2, #188 ) ;
#223 = COORDINATED_UNIVERSAL_TIME_OFFSET ( 1, 0, .AHEAD. ) ;
#224 = ADVANCED_FACE ( 'NONE', ( #299, #258 ), #122, .T. ) ;
#225 = DIRECTION ( 'NONE',  ( 4.275831445896958607E-31, 1.000000000000000000, 1.224646799147353207E-16 ) ) ;
#226 = PERSON_AND_ORGANIZATION_ROLE ( 'classification_officer' ) ;
#227 = ORIENTED_EDGE ( 'NONE', *, *, #190, .F. ) ;
#228 = CALENDAR_DATE ( 2021, 30, 11 ) ;
#229 = DIRECTION ( 'NONE',  ( -3.491481338843133355E-15, 1.224646799147353454E-16, -1.000000000000000000 ) ) ;
#230 = DIRECTION ( 'NONE',  ( -3.491481338843133355E-15, 1.224646799147353454E-16, -1.000000000000000000 ) ) ;
#231 = EDGE_LOOP ( 'NONE', ( #89 ) ) ;
#232 = FACE_OUTER_BOUND ( 'NONE', #160, .T. ) ;
#233 = DIRECTION ( 'NONE',  ( 3.491481338843133355E-15, -1.224646799147353454E-16, 1.000000000000000000 ) ) ;
#234 = FACE_OUTER_BOUND ( 'NONE', #69, .T. ) ;
#235 = AXIS2_PLACEMENT_3D ( 'NONE', #174, #148, #285 ) ;
#236 = CARTESIAN_POINT ( 'NONE',  ( 3.491481338843133355E-14, 1.056205826939611844E-32, 10.00000000000000000 ) ) ;
#237 = ADVANCED_FACE ( 'NONE', ( #303, #277 ), #142, .T. ) ;
#238 = DIRECTION ( 'NONE',  ( -3.491481338843133355E-15, 1.224646799147353454E-16, -1.000000000000000000 ) ) ;
#239 = APPLICATION_PROTOCOL_DEFINITION ( 'international standard', 'config_control_design', 1994, #33 ) ;
#240 = FACE_OUTER_BOUND ( 'NONE', #155, .T. ) ;
#241 = PERSON_AND_ORGANIZATION ( #2, #188 ) ;
#242 = CIRCLE ( 'NONE', #197, 1.200000000000000178 ) ;
#243 = CC_DESIGN_PERSON_AND_ORGANIZATION_ASSIGNMENT ( #133, #226, ( #9 ) ) ;
#244 = DATE_AND_TIME ( #248, #211 ) ;
#245 = EDGE_LOOP ( 'NONE', ( #162 ) ) ;
#246 = CALENDAR_DATE ( 2021, 30, 11 ) ;
#247 = ORIENTED_EDGE ( 'NONE', *, *, #59, .F. ) ;
#248 = CALENDAR_DATE ( 2021, 30, 11 ) ;
#249 = CIRCLE ( 'NONE', #118, 1.264162432702594652 ) ;
#250 = FACE_BOUND ( 'NONE', #231, .T. ) ;
#251 = LOCAL_TIME ( 10, 57, 11.00000000000000000, #34 ) ;
#252 = EDGE_LOOP ( 'NONE', ( #11 ) ) ;
#253 = CC_DESIGN_DATE_AND_TIME_ASSIGNMENT ( #36, #111, ( #137 ) ) ;
#254 = DIRECTION ( 'NONE',  ( -3.491481338843133355E-15, 1.224646799147353454E-16, -1.000000000000000000 ) ) ;
#255 = CARTESIAN_POINT ( 'NONE',  ( 2.129803616694311221E-13, -7.470345474798856659E-15, 61.00000000000000000 ) ) ;
#256 = DIRECTION ( 'NONE',  ( -3.491481338843133355E-15, 1.224646799147353454E-16, -1.000000000000000000 ) ) ;
#257 = PLANE ( 'NONE',  #280 ) ;
#258 = FACE_OUTER_BOUND ( 'NONE', #15, .T. ) ;
#259 = MANIFOLD_SOLID_BREP ( 'Corps-Déplacer/Copier1[2]', #172 ) ;
#260 = DIRECTION ( 'NONE',  ( -4.275831445896959482E-31, -1.000000000000000000, -1.224646799147353454E-16 ) ) ;
#261 = EDGE_CURVE ( 'NONE', #195, #195, #242, .T. ) ;
#262 = DATE_AND_TIME ( #228, #179 ) ;
#263 = AXIS2_PLACEMENT_3D ( 'NONE', #275, #73, #273 ) ;
#264 = ORIENTED_EDGE ( 'NONE', *, *, #163, .T. ) ;
#265 = CALENDAR_DATE ( 2021, 30, 11 ) ;
#266 = ORIENTED_EDGE ( 'NONE', *, *, #190, .T. ) ;
#267 = DIRECTION ( 'NONE',  ( -3.491481338843133355E-15, 1.224646799147353454E-16, -1.000000000000000000 ) ) ;
#268 = EDGE_LOOP ( 'NONE', ( #38 ) ) ;
#269 = PRODUCT_DEFINITION_FORMATION_WITH_SPECIFIED_SOURCE ( 'ANY', '', #145, .NOT_KNOWN. ) ;
#270 = ORIENTED_EDGE ( 'NONE', *, *, #261, .T. ) ;
#271 = DIRECTION ( 'NONE',  ( 0.0000000000000000000, 1.000000000000000000, 0.0000000000000000000 ) ) ;
#272 = ADVANCED_FACE ( 'NONE', ( #93, #232 ), #66, .T. ) ;
#273 = DIRECTION ( 'NONE',  ( 0.0000000000000000000, 1.000000000000000000, 0.0000000000000000000 ) ) ;
#274 = CIRCLE ( 'NONE', #141, 1.500000000000001332 ) ;
#275 = CARTESIAN_POINT ( 'NONE',  ( 3.491481338843133355E-14, -1.224646799147353454E-15, 10.00000000000000000 ) ) ;
#276 = CARTESIAN_POINT ( 'NONE',  ( 3.491481338843133355E-14, -1.224646799147353454E-15, 10.00000000000000000 ) ) ;
#277 = FACE_OUTER_BOUND ( 'NONE', #178, .T. ) ;
#278 = ADVANCED_FACE ( 'NONE', ( #240, #126 ), #58, .T. ) ;
#279 = DESIGN_CONTEXT ( 'detailed design', #33, 'design' ) ;
#280 = AXIS2_PLACEMENT_3D ( 'NONE', #236, #147, #260 ) ;
#281 = CARTESIAN_POINT ( 'NONE',  ( 3.617570109905906359E-14, 1.199999999999996847, 10.36113259337811954 ) ) ;
#282 = VERTEX_POINT ( 'NONE', #82 ) ;
#283 = CARTESIAN_POINT ( 'NONE',  ( 2.119329172677781757E-13, -7.433606070824434221E-15, 60.69999999999999574 ) ) ;
#284 = AXIS2_PLACEMENT_3D ( 'NONE', #301, #97, #209 ) ;
#285 = DIRECTION ( 'NONE',  ( 4.275831445896960358E-31, 1.000000000000000000, 1.224646799147353454E-16 ) ) ;
#286 = CARTESIAN_POINT ( 'NONE',  ( 3.491481338843133355E-14, 1.408499999999998753, 10.00000000000000000 ) ) ;
#287 = PERSON_AND_ORGANIZATION ( #2, #188 ) ;
#288 = DIRECTION ( 'NONE',  ( 0.0000000000000000000, 1.000000000000000000, 0.0000000000000000000 ) ) ;
#289 = CLOSED_SHELL ( 'NONE', ( #81, #54, #237, #37, #176, #278, #85, #181 ) ) ;
#290 = CALENDAR_DATE ( 2021, 30, 11 ) ;
#291 = ORIENTED_EDGE ( 'NONE', *, *, #169, .F. ) ;
#292 = APPROVAL_DATE_TIME ( #244, #302 ) ;
#293 = DATE_AND_TIME ( #290, #251 ) ;
#294 = FACE_OUTER_BOUND ( 'NONE', #132, .T. ) ;
#295 = EDGE_LOOP ( 'NONE', ( #291 ) ) ;
#296 = FACE_OUTER_BOUND ( 'NONE', #200, .T. ) ;
#297 = EDGE_CURVE ( 'NONE', #282, #282, #274, .T. ) ;
#298 = FACE_BOUND ( 'NONE', #35, .T. ) ;
#299 = FACE_OUTER_BOUND ( 'NONE', #180, .T. ) ;
#300 = CC_DESIGN_APPROVAL ( #63, ( #137 ) ) ;
#301 = CARTESIAN_POINT ( 'NONE',  ( 8.728703347107827472E-16, -3.061616997868381785E-17, 0.2499999999999998335 ) ) ;
#302 = APPROVAL ( #109, 'UNSPECIFIED' ) ;
#303 = FACE_OUTER_BOUND ( 'NONE', #17, .T. ) ;
ENDSEC;
END-ISO-10303-21;
