ISO-10303-21;
HEADER;
FILE_DESCRIPTION (( 'STEP AP203' ),
    '1' );
FILE_NAME ('953781.step',
    '2021-09-21T07:38:01',
    ( '' ),
    ( '' ),
    'SwSTEP 2.0',
    'SolidWorks 2019',
    '' );
FILE_SCHEMA (( 'CONFIG_CONTROL_DESIGN' ));
ENDSEC;

DATA;
#1 = PERSON_AND_ORGANIZATION ( #56, #245 ) ;
#2 = CALENDAR_DATE ( 2021, 21, 9 ) ;
#3 = ORIENTED_EDGE ( 'NONE', *, *, #130, .F. ) ;
#4 = LOCAL_TIME ( 9, 38, 1.000000000000000000, #47 ) ;
#5 = DIRECTION ( 'NONE',  ( -3.491481338843133355E-15, 1.224646799147353454E-16, -1.000000000000000000 ) ) ;
#6 = VECTOR ( 'NONE', #200, 1000.000000000000000 ) ;
#7 = ADVANCED_FACE ( 'NONE', ( #179 ), #198, .F. ) ;
#8 = PRODUCT ( '953781', '953781', '', ( #46 ) ) ;
#9 = CIRCLE ( 'NONE', #162, 0.4999999999999962252 ) ;
#10 = ORIENTED_EDGE ( 'NONE', *, *, #146, .T. ) ;
#11 = DESIGN_CONTEXT ( 'detailed design', #37, 'design' ) ;
#12 = ORIENTED_EDGE ( 'NONE', *, *, #91, .T. ) ;
#13 = ORIENTED_EDGE ( 'NONE', *, *, #219, .T. ) ;
#14 = EDGE_CURVE ( 'NONE', #153, #158, #128, .T. ) ;
#15 = APPROVAL_PERSON_ORGANIZATION ( #71, #266, #246 ) ;
#16 = EDGE_LOOP ( 'NONE', ( #22, #3 ) ) ;
#17 = PRODUCT_RELATED_PRODUCT_CATEGORY ( 'detail', '', ( #8 ) ) ;
#18 = CARTESIAN_POINT ( 'NONE',  ( 2.137915722948471421E-31, 0.4999999999999980571, 6.123233995736743849E-17 ) ) ;
#19 = CARTESIAN_POINT ( 'NONE',  ( 1.113782547090959477E-13, 0.4999999999999961142, 31.89999999999999858 ) ) ;
#20 = EDGE_CURVE ( 'NONE', #168, #99, #75, .T. ) ;
#21 = DIRECTION ( 'NONE',  ( -3.491481338843133355E-15, 1.224646799147353454E-16, -1.000000000000000000 ) ) ;
#22 = ORIENTED_EDGE ( 'NONE', *, *, #263, .F. ) ;
#23 = CLOSED_SHELL ( 'NONE', ( #184, #41, #7, #61, #275, #180 ) ) ;
#24 = APPLICATION_CONTEXT ( 'configuration controlled 3d designs of mechanical parts and assemblies' ) ;
#25 = VECTOR ( 'NONE', #40, 999.9999999999998863 ) ;
#26 = CC_DESIGN_PERSON_AND_ORGANIZATION_ASSIGNMENT ( #285, #242, ( #273 ) ) ;
#27 = PERSON_AND_ORGANIZATION ( #56, #245 ) ;
#28 = VECTOR ( 'NONE', #185, 1000.000000000000000 ) ;
#29 = VERTEX_POINT ( 'NONE', #116 ) ;
#30 = LINE ( 'NONE', #117, #226 ) ;
#31 =( LENGTH_UNIT ( ) NAMED_UNIT ( * ) SI_UNIT ( .MILLI., .METRE. ) );
#32 = VERTEX_POINT ( 'NONE', #48 ) ;
#33 = VERTEX_POINT ( 'NONE', #52 ) ;
#34 = ORIENTED_EDGE ( 'NONE', *, *, #68, .F. ) ;
#35 = DIRECTION ( 'NONE',  ( -3.491481338843133355E-15, 1.224646799147353454E-16, -1.000000000000000000 ) ) ;
#36 = AXIS2_PLACEMENT_3D ( 'NONE', #126, #269, #197 ) ;
#37 = APPLICATION_CONTEXT ( 'configuration controlled 3d designs of mechanical parts and assemblies' ) ;
#38 = CC_DESIGN_PERSON_AND_ORGANIZATION_ASSIGNMENT ( #1, #239, ( #8 ) ) ;
#39 = DIRECTION ( 'NONE',  ( -7.703719777549001216E-31, -1.000000000000000000, -2.168404344971025138E-16 ) ) ;
#40 = DIRECTION ( 'NONE',  ( -2.382254525458752968E-15, -0.7071067811865372477, -0.7071067811865578978 ) ) ;
#41 = ADVANCED_FACE ( 'NONE', ( #174 ), #76, .T. ) ;
#42 = DIRECTION ( 'NONE',  ( 3.491481338843133355E-15, -1.224646799147353454E-16, 1.000000000000000000 ) ) ;
#43 = APPROVAL_DATE_TIME ( #149, #127 ) ;
#44 = CIRCLE ( 'NONE', #199, 0.4999999999999962252 ) ;
#45 =( NAMED_UNIT ( * ) SI_UNIT ( $, .STERADIAN. ) SOLID_ANGLE_UNIT ( ) );
#46 = MECHANICAL_CONTEXT ( 'NONE', #24, 'mechanical' ) ;
#47 = COORDINATED_UNIVERSAL_TIME_OFFSET ( 1, 0, .AHEAD. ) ;
#48 = CARTESIAN_POINT ( 'NONE',  ( 1.117274028429802674E-13, 0.3999999999999961364, 32.00000000000000000 ) ) ;
#49 = APPROVAL ( #152, 'UNSPECIFIED' ) ;
#50 = APPROVAL_DATE_TIME ( #92, #266 ) ;
#51 = DIRECTION ( 'NONE',  ( -3.491481338843133355E-15, 1.224646799147353454E-16, -1.000000000000000000 ) ) ;
#52 = CARTESIAN_POINT ( 'NONE',  ( 1.745740669421572200E-15, -0.4999999999999963363, 0.5000000000000015543 ) ) ;
#53 = DIRECTION ( 'NONE',  ( 0.0000000000000000000, 1.000000000000000000, 0.0000000000000000000 ) ) ;
#54 = ORIENTED_EDGE ( 'NONE', *, *, #20, .F. ) ;
#55 = ORIENTED_EDGE ( 'NONE', *, *, #146, .F. ) ;
#56 = PERSON ( 'UNSPECIFIED', 'UNSPECIFIED', 'UNSPECIFIED', ('UNSPECIFIED'), ('UNSPECIFIED'), ('UNSPECIFIED') ) ;
#57 = DIRECTION ( 'NONE',  ( -3.491481338843133355E-15, 1.224646799147353454E-16, -1.000000000000000000 ) ) ;
#58 = DIRECTION ( 'NONE',  ( 4.275831445896959482E-31, 1.000000000000000000, 1.224646799147353454E-16 ) ) ;
#59 = AXIS2_PLACEMENT_3D ( 'NONE', #122, #205, #210 ) ;
#60 = CIRCLE ( 'NONE', #214, 0.5000000000000000000 ) ;
#61 = ADVANCED_FACE ( 'NONE', ( #124 ), #233, .T. ) ;
#62 = CARTESIAN_POINT ( 'NONE',  ( 1.745740669421572594E-15, -6.123233995736786990E-17, 0.5000000000000016653 ) ) ;
#63 = CARTESIAN_POINT ( 'NONE',  ( 1.116079378819997586E-13, -0.4000000000000039080, 32.00000000000000000 ) ) ;
#64 = APPROVAL_ROLE ( '' ) ;
#65 = PLANE ( 'NONE',  #36 ) ;
#66 = VERTEX_POINT ( 'NONE', #229 ) ;
#67 = SECURITY_CLASSIFICATION_LEVEL ( 'unclassified' ) ;
#68 = EDGE_CURVE ( 'NONE', #32, #153, #277, .T. ) ;
#69 = CONICAL_SURFACE ( 'NONE', #183, 0.4000000000000000222, 0.7853981633974339571 ) ;
#70 = APPLICATION_PROTOCOL_DEFINITION ( 'international standard', 'config_control_design', 1994, #37 ) ;
#71 = PERSON_AND_ORGANIZATION ( #56, #245 ) ;
#72 = EDGE_CURVE ( 'NONE', #168, #33, #138, .T. ) ;
#73 = APPROVAL_STATUS ( 'not_yet_approved' ) ;
#74 = CARTESIAN_POINT ( 'NONE',  ( 0.0000000000000000000, 0.0000000000000000000, 0.0000000000000000000 ) ) ;
#75 = LINE ( 'NONE', #155, #6 ) ;
#76 = CYLINDRICAL_SURFACE ( 'NONE', #87, 0.4999999999999980571 ) ;
#77 = CC_DESIGN_APPROVAL ( #127, ( #157 ) ) ;
#78 = ORIENTED_EDGE ( 'NONE', *, *, #163, .T. ) ;
#79 = CARTESIAN_POINT ( 'NONE',  ( 1.117274028429802674E-13, 2.999519565323658083E-33, 32.00000000000000000 ) ) ;
#80 = DIRECTION ( 'NONE',  ( 4.275831445896959482E-31, 1.000000000000000000, 1.224646799147353454E-16 ) ) ;
#81 = CC_DESIGN_PERSON_AND_ORGANIZATION_ASSIGNMENT ( #27, #172, ( #157 ) ) ;
#82 = LOCAL_TIME ( 9, 38, 1.000000000000000000, #115 ) ;
#83 = FACE_OUTER_BOUND ( 'NONE', #221, .T. ) ;
#84 = DIRECTION ( 'NONE',  ( 0.0000000000000000000, 1.000000000000000000, 0.0000000000000000000 ) ) ;
#85 = PLANE ( 'NONE',  #240 ) ;
#86 = CARTESIAN_POINT ( 'NONE',  ( 1.745740669421572594E-15, -6.123233995736786990E-17, 0.5000000000000016653 ) ) ;
#87 = AXIS2_PLACEMENT_3D ( 'NONE', #74, #272, #208 ) ;
#88 = DATE_AND_TIME ( #243, #224 ) ;
#89 = CC_DESIGN_APPROVAL ( #49, ( #195 ) ) ;
#90 = CALENDAR_DATE ( 2021, 21, 9 ) ;
#91 = EDGE_CURVE ( 'NONE', #153, #66, #164, .T. ) ;
#92 = DATE_AND_TIME ( #2, #82 ) ;
#93 = LOCAL_TIME ( 9, 38, 1.000000000000000000, #147 ) ;
#94 = CLOSED_SHELL ( 'NONE', ( #206, #230, #253 ) ) ;
#95 = CARTESIAN_POINT ( 'NONE',  ( 1.117274028429802674E-13, -3.918869757271531052E-15, 32.00000000000000000 ) ) ;
#96 = ORIENTED_EDGE ( 'NONE', *, *, #91, .F. ) ;
#97 = ORIENTED_EDGE ( 'NONE', *, *, #244, .F. ) ;
#98 = ORIENTED_EDGE ( 'NONE', *, *, #113, .F. ) ;
#99 = VERTEX_POINT ( 'NONE', #211 ) ;
#100 = CC_DESIGN_PERSON_AND_ORGANIZATION_ASSIGNMENT ( #194, #216, ( #195 ) ) ;
#101 = DIRECTION ( 'NONE',  ( -2.468850131082300448E-15, 0.7071067811865374697, -0.7071067811865575647 ) ) ;
#102 = DIRECTION ( 'NONE',  ( -3.491481338843133355E-15, 1.224646799147353454E-16, -1.000000000000000000 ) ) ;
#103 = CONICAL_SURFACE ( 'NONE', #262, 0.4999999999999962252, 0.7853981633974428389 ) ;
#104 = CARTESIAN_POINT ( 'NONE',  ( 5.662323002921571772E-14, -0.5000000000000038858, 31.89999999999999858 ) ) ;
#105 = DIRECTION ( 'NONE',  ( -3.491481338843133355E-15, 1.224646799147353454E-16, -1.000000000000000000 ) ) ;
#106 = VECTOR ( 'NONE', #35, 1000.000000000000000 ) ;
#107 = EDGE_CURVE ( 'NONE', #118, #32, #159, .T. ) ;
#108 = COORDINATED_UNIVERSAL_TIME_OFFSET ( 1, 0, .AHEAD. ) ;
#109 = DIRECTION ( 'NONE',  ( -3.491481338843133355E-15, 1.224646799147353454E-16, -1.000000000000000000 ) ) ;
#110 = COORDINATED_UNIVERSAL_TIME_OFFSET ( 1, 0, .AHEAD. ) ;
#111 = AXIS2_PLACEMENT_3D ( 'NONE', #190, #213, #167 ) ;
#112 = LOCAL_TIME ( 9, 38, 1.000000000000000000, #110 ) ;
#113 = EDGE_CURVE ( 'NONE', #118, #158, #278, .T. ) ;
#114 = CARTESIAN_POINT ( 'NONE',  ( 0.0000000000000000000, 0.0000000000000000000, 0.0000000000000000000 ) ) ;
#115 = COORDINATED_UNIVERSAL_TIME_OFFSET ( 1, 0, .AHEAD. ) ;
#116 = CARTESIAN_POINT ( 'NONE',  ( 5.662323002921603958E-14, -0.4999999999999963363, 0.5000000000000015543 ) ) ;
#117 = CARTESIAN_POINT ( 'NONE',  ( 6.123233995736721662E-17, -0.4999999999999980571, -6.123233995736764803E-17 ) ) ;
#118 = VERTEX_POINT ( 'NONE', #63 ) ;
#119 = EDGE_LOOP ( 'NONE', ( #196, #268, #228 ) ) ;
#120 = ORIENTED_EDGE ( 'NONE', *, *, #113, .T. ) ;
#121 = ORIENTED_EDGE ( 'NONE', *, *, #286, .T. ) ;
#122 = CARTESIAN_POINT ( 'NONE',  ( 1.745740669421572594E-15, -6.123233995736786990E-17, 0.5000000000000016653 ) ) ;
#123 = CARTESIAN_POINT ( 'NONE',  ( 1.745740669421572594E-15, -6.123233995736786990E-17, 0.5000000000000016653 ) ) ;
#124 = FACE_OUTER_BOUND ( 'NONE', #223, .T. ) ;
#125 = CARTESIAN_POINT ( 'NONE',  ( 1.745740669421572594E-15, -6.123233995736786990E-17, 0.5000000000000016653 ) ) ;
#126 = CARTESIAN_POINT ( 'NONE',  ( 1.745740669421579102E-15, -1.084202172485513802E-16, 0.5000000000000035527 ) ) ;
#127 = APPROVAL ( #73, 'UNSPECIFIED' ) ;
#128 = CIRCLE ( 'NONE', #261, 0.5000000000000000000 ) ;
#129 = PERSON_AND_ORGANIZATION ( #56, #245 ) ;
#130 = EDGE_CURVE ( 'NONE', #99, #33, #175, .T. ) ;
#131 = DIRECTION ( 'NONE',  ( 1.000000000000000000, 0.0000000000000000000, 0.0000000000000000000 ) ) ;
#132 = CIRCLE ( 'NONE', #188, 0.4999999999999962252 ) ;
#133 = SHAPE_DEFINITION_REPRESENTATION ( #280, #218 ) ;
#134 = ORIENTED_EDGE ( 'NONE', *, *, #68, .T. ) ;
#135 = EDGE_LOOP ( 'NONE', ( #10, #78 ) ) ;
#136 = MANIFOLD_SOLID_BREP ( 'Corps-Déplacer/Copier1[1]', #23 ) ;
#137 = ORIENTED_EDGE ( 'NONE', *, *, #14, .T. ) ;
#138 = LINE ( 'NONE', #234, #28 ) ;
#139 = AXIS2_PLACEMENT_3D ( 'NONE', #281, #254, #84 ) ;
#140 = FACE_OUTER_BOUND ( 'NONE', #204, .T. ) ;
#141 = DIRECTION ( 'NONE',  ( 3.491481338843133355E-15, -1.224646799147353454E-16, 1.000000000000000000 ) ) ;
#142 = DIRECTION ( 'NONE',  ( 7.703719777549001216E-31, 1.000000000000000000, 2.168404344971025138E-16 ) ) ;
#143 = MANIFOLD_SOLID_BREP ( 'Corps-Déplacer/Copier1[2]', #94 ) ;
#144 = CARTESIAN_POINT ( 'NONE',  ( 0.0000000000000000000, 0.0000000000000000000, 0.0000000000000000000 ) ) ;
#145 = FACE_OUTER_BOUND ( 'NONE', #16, .T. ) ;
#146 = EDGE_CURVE ( 'NONE', #66, #29, #9, .T. ) ;
#147 = COORDINATED_UNIVERSAL_TIME_OFFSET ( 1, 0, .AHEAD. ) ;
#148 = ORIENTED_EDGE ( 'NONE', *, *, #163, .F. ) ;
#149 = DATE_AND_TIME ( #170, #112 ) ;
#150 = APPROVAL_STATUS ( 'not_yet_approved' ) ;
#151 = DIRECTION ( 'NONE',  ( -4.275831445896959482E-31, -1.000000000000000000, -1.224646799147353454E-16 ) ) ;
#152 = APPROVAL_STATUS ( 'not_yet_approved' ) ;
#153 = VERTEX_POINT ( 'NONE', #19 ) ;
#154 = CARTESIAN_POINT ( 'NONE',  ( 1.113782547090959477E-13, -3.906623289280056906E-15, 31.89999999999999858 ) ) ;
#155 = CARTESIAN_POINT ( 'NONE',  ( 1.806973009378940168E-15, 0.4999999999999961142, 0.5000000000000017764 ) ) ;
#156 = AXIS2_PLACEMENT_3D ( 'NONE', #95, #51, #53 ) ;
#157 = PRODUCT_DEFINITION_FORMATION_WITH_SPECIFIED_SOURCE ( 'ANY', '', #8, .NOT_KNOWN. ) ;
#158 = VERTEX_POINT ( 'NONE', #104 ) ;
#159 = CIRCLE ( 'NONE', #139, 0.4000000000000000222 ) ;
#160 = ORIENTED_EDGE ( 'NONE', *, *, #14, .F. ) ;
#161 = DIRECTION ( 'NONE',  ( -3.491481338843133355E-15, 1.224646799147353454E-16, -1.000000000000000000 ) ) ;
#162 = AXIS2_PLACEMENT_3D ( 'NONE', #125, #102, #142 ) ;
#163 = EDGE_CURVE ( 'NONE', #29, #66, #44, .T. ) ;
#164 = LINE ( 'NONE', #18, #106 ) ;
#165 = DIRECTION ( 'NONE',  ( -3.491481338843133355E-15, 1.224646799147353454E-16, -1.000000000000000000 ) ) ;
#166 =( GEOMETRIC_REPRESENTATION_CONTEXT ( 3 ) GLOBAL_UNCERTAINTY_ASSIGNED_CONTEXT ( ( #282 ) ) GLOBAL_UNIT_ASSIGNED_CONTEXT ( ( #31, #237, #45 ) ) REPRESENTATION_CONTEXT ( 'NONE', 'WORKASPACE' ) );
#167 = DIRECTION ( 'NONE',  ( 0.0000000000000000000, 1.000000000000000000, 0.0000000000000000000 ) ) ;
#168 = VERTEX_POINT ( 'NONE', #283 ) ;
#169 = EDGE_LOOP ( 'NONE', ( #98, #264, #134, #97 ) ) ;
#170 = CALENDAR_DATE ( 2021, 21, 9 ) ;
#171 = PERSON_AND_ORGANIZATION ( #56, #245 ) ;
#172 = PERSON_AND_ORGANIZATION_ROLE ( 'creator' ) ;
#173 = DIRECTION ( 'NONE',  ( 0.0000000000000000000, 1.000000000000000000, 0.0000000000000000000 ) ) ;
#174 = FACE_OUTER_BOUND ( 'NONE', #201, .T. ) ;
#175 = CIRCLE ( 'NONE', #59, 0.4999999999999962252 ) ;
#176 = ORIENTED_EDGE ( 'NONE', *, *, #286, .F. ) ;
#177 = DIRECTION ( 'NONE',  ( -3.491481338843133355E-15, 1.224646799147353454E-16, -1.000000000000000000 ) ) ;
#178 = ORIENTED_EDGE ( 'NONE', *, *, #72, .T. ) ;
#179 = FACE_OUTER_BOUND ( 'NONE', #135, .T. ) ;
#180 = ADVANCED_FACE ( 'NONE', ( #83 ), #85, .F. ) ;
#181 = APPROVAL_PERSON_ORGANIZATION ( #171, #49, #64 ) ;
#182 = CC_DESIGN_PERSON_AND_ORGANIZATION_ASSIGNMENT ( #215, #249, ( #157 ) ) ;
#183 = AXIS2_PLACEMENT_3D ( 'NONE', #232, #165, #207 ) ;
#184 = ADVANCED_FACE ( 'NONE', ( #140 ), #69, .T. ) ;
#185 = DIRECTION ( 'NONE',  ( 2.468850131082278754E-15, -0.7071067811865437980, 0.7071067811865513475 ) ) ;
#186 = CONICAL_SURFACE ( 'NONE', #156, 0.4000000000000000222, 0.7853981633974339571 ) ;
#187 = DIRECTION ( 'NONE',  ( 7.703719777549001216E-31, 1.000000000000000000, 2.168404344971025138E-16 ) ) ;
#188 = AXIS2_PLACEMENT_3D ( 'NONE', #212, #21, #187 ) ;
#189 = DIRECTION ( 'NONE',  ( 0.0000000000000000000, 0.0000000000000000000, 1.000000000000000000 ) ) ;
#190 = CARTESIAN_POINT ( 'NONE',  ( 1.117274028429802674E-13, -3.918869757271531052E-15, 32.00000000000000000 ) ) ;
#191 = ORIENTED_EDGE ( 'NONE', *, *, #263, .T. ) ;
#192 = APPROVAL_ROLE ( '' ) ;
#193 = APPROVAL_PERSON_ORGANIZATION ( #129, #127, #192 ) ;
#194 = PERSON_AND_ORGANIZATION ( #56, #245 ) ;
#195 = PRODUCT_DEFINITION ( 'UNKNOWN', '', #157, #11 ) ;
#196 = ORIENTED_EDGE ( 'NONE', *, *, #72, .F. ) ;
#197 = DIRECTION ( 'NONE',  ( -4.275831445896959482E-31, -1.000000000000000000, -1.224646799147353454E-16 ) ) ;
#198 = PLANE ( 'NONE',  #255 ) ;
#199 = AXIS2_PLACEMENT_3D ( 'NONE', #123, #161, #235 ) ;
#200 = DIRECTION ( 'NONE',  ( 2.555445736705828206E-15, 0.7071067811865435759, 0.7071067811865515695 ) ) ;
#201 = EDGE_LOOP ( 'NONE', ( #137, #13, #55, #96 ) ) ;
#202 = AXIS2_PLACEMENT_3D ( 'NONE', #114, #189, #131 ) ;
#203 = CC_DESIGN_APPROVAL ( #266, ( #273 ) ) ;
#204 = EDGE_LOOP ( 'NONE', ( #121, #120, #160, #34 ) ) ;
#205 = DIRECTION ( 'NONE',  ( -3.491481338843133355E-15, 1.224646799147353454E-16, -1.000000000000000000 ) ) ;
#206 = ADVANCED_FACE ( 'NONE', ( #257 ), #103, .T. ) ;
#207 = DIRECTION ( 'NONE',  ( 0.0000000000000000000, 1.000000000000000000, 0.0000000000000000000 ) ) ;
#208 = DIRECTION ( 'NONE',  ( 4.275831445896959482E-31, 1.000000000000000000, 1.224646799147353454E-16 ) ) ;
#209 = CIRCLE ( 'NONE', #111, 0.4000000000000000222 ) ;
#210 = DIRECTION ( 'NONE',  ( 7.703719777549001216E-31, 1.000000000000000000, 2.168404344971025138E-16 ) ) ;
#211 = CARTESIAN_POINT ( 'NONE',  ( 1.806973009378940168E-15, 0.4999999999999961142, 0.5000000000000017764 ) ) ;
#212 = CARTESIAN_POINT ( 'NONE',  ( 1.745740669421572594E-15, -6.123233995736786990E-17, 0.5000000000000016653 ) ) ;
#213 = DIRECTION ( 'NONE',  ( -3.491481338843133355E-15, 1.224646799147353454E-16, -1.000000000000000000 ) ) ;
#214 = AXIS2_PLACEMENT_3D ( 'NONE', #154, #5, #173 ) ;
#215 = PERSON_AND_ORGANIZATION ( #56, #245 ) ;
#216 = PERSON_AND_ORGANIZATION_ROLE ( 'creator' ) ;
#217 = DATE_TIME_ROLE ( 'creation_date' ) ;
#218 = ADVANCED_BREP_SHAPE_REPRESENTATION ( '953781', ( #136, #143, #202 ), #166 ) ;
#219 = EDGE_CURVE ( 'NONE', #158, #29, #30, .T. ) ;
#220 = DATE_AND_TIME ( #265, #4 ) ;
#221 = EDGE_LOOP ( 'NONE', ( #176, #227 ) ) ;
#222 = CC_DESIGN_DATE_AND_TIME_ASSIGNMENT ( #220, #267, ( #273 ) ) ;
#223 = EDGE_LOOP ( 'NONE', ( #251, #241, #12, #148 ) ) ;
#224 = LOCAL_TIME ( 9, 38, 1.000000000000000000, #108 ) ;
#225 = CARTESIAN_POINT ( 'NONE',  ( 1.113782547090959477E-13, -3.906623289280056906E-15, 31.89999999999999858 ) ) ;
#226 = VECTOR ( 'NONE', #109, 1000.000000000000000 ) ;
#227 = ORIENTED_EDGE ( 'NONE', *, *, #107, .F. ) ;
#228 = ORIENTED_EDGE ( 'NONE', *, *, #130, .T. ) ;
#229 = CARTESIAN_POINT ( 'NONE',  ( 1.745740669421572989E-15, 0.4999999999999961142, 0.5000000000000017764 ) ) ;
#230 = ADVANCED_FACE ( 'NONE', ( #236 ), #248, .T. ) ;
#231 = VECTOR ( 'NONE', #101, 1000.000000000000000 ) ;
#232 = CARTESIAN_POINT ( 'NONE',  ( 1.117274028429802674E-13, -3.918869757271531052E-15, 32.00000000000000000 ) ) ;
#233 = CYLINDRICAL_SURFACE ( 'NONE', #279, 0.4999999999999980571 ) ;
#234 = CARTESIAN_POINT ( 'NONE',  ( 1.745740669421572200E-15, -0.4999999999999963363, 0.5000000000000015543 ) ) ;
#235 = DIRECTION ( 'NONE',  ( 7.703719777549001216E-31, 1.000000000000000000, 2.168404344971025138E-16 ) ) ;
#236 = FACE_OUTER_BOUND ( 'NONE', #274, .T. ) ;
#237 =( NAMED_UNIT ( * ) PLANE_ANGLE_UNIT ( ) SI_UNIT ( $, .RADIAN. ) );
#238 = CC_DESIGN_SECURITY_CLASSIFICATION ( #273, ( #157 ) ) ;
#239 = PERSON_AND_ORGANIZATION_ROLE ( 'design_owner' ) ;
#240 = AXIS2_PLACEMENT_3D ( 'NONE', #79, #105, #58 ) ;
#241 = ORIENTED_EDGE ( 'NONE', *, *, #244, .T. ) ;
#242 = PERSON_AND_ORGANIZATION_ROLE ( 'classification_officer' ) ;
#243 = CALENDAR_DATE ( 2021, 21, 9 ) ;
#244 = EDGE_CURVE ( 'NONE', #158, #153, #60, .T. ) ;
#245 = ORGANIZATION ( 'UNSPECIFIED', 'UNSPECIFIED', '' ) ;
#246 = APPROVAL_ROLE ( '' ) ;
#247 = DIRECTION ( 'NONE',  ( 0.0000000000000000000, 1.000000000000000000, 0.0000000000000000000 ) ) ;
#248 = CONICAL_SURFACE ( 'NONE', #258, 0.4999999999999962252, 0.7853981633974428389 ) ;
#249 = PERSON_AND_ORGANIZATION_ROLE ( 'design_supplier' ) ;
#250 = FACE_OUTER_BOUND ( 'NONE', #169, .T. ) ;
#251 = ORIENTED_EDGE ( 'NONE', *, *, #219, .F. ) ;
#252 = CARTESIAN_POINT ( 'NONE',  ( 1.117274028429802674E-13, 0.3999999999999961364, 32.00000000000000000 ) ) ;
#253 = ADVANCED_FACE ( 'NONE', ( #145 ), #65, .T. ) ;
#254 = DIRECTION ( 'NONE',  ( -3.491481338843133355E-15, 1.224646799147353454E-16, -1.000000000000000000 ) ) ;
#255 = AXIS2_PLACEMENT_3D ( 'NONE', #276, #270, #151 ) ;
#256 = CARTESIAN_POINT ( 'NONE',  ( 1.117763887149461766E-13, -0.4000000000000039080, 32.00000000000000000 ) ) ;
#257 = FACE_OUTER_BOUND ( 'NONE', #119, .T. ) ;
#258 = AXIS2_PLACEMENT_3D ( 'NONE', #86, #42, #259 ) ;
#259 = DIRECTION ( 'NONE',  ( -7.703719777549001216E-31, -1.000000000000000000, -2.168404344971025138E-16 ) ) ;
#260 = DATE_AND_TIME ( #90, #93 ) ;
#261 = AXIS2_PLACEMENT_3D ( 'NONE', #225, #177, #247 ) ;
#262 = AXIS2_PLACEMENT_3D ( 'NONE', #62, #141, #39 ) ;
#263 = EDGE_CURVE ( 'NONE', #33, #99, #132, .T. ) ;
#264 = ORIENTED_EDGE ( 'NONE', *, *, #107, .T. ) ;
#265 = CALENDAR_DATE ( 2021, 21, 9 ) ;
#266 = APPROVAL ( #150, 'UNSPECIFIED' ) ;
#267 = DATE_TIME_ROLE ( 'classification_date' ) ;
#268 = ORIENTED_EDGE ( 'NONE', *, *, #20, .T. ) ;
#269 = DIRECTION ( 'NONE',  ( 3.491481338843133355E-15, -1.224646799147353454E-16, 1.000000000000000000 ) ) ;
#270 = DIRECTION ( 'NONE',  ( 3.491481338843133355E-15, -1.224646799147353454E-16, 1.000000000000000000 ) ) ;
#271 = CC_DESIGN_DATE_AND_TIME_ASSIGNMENT ( #88, #217, ( #195 ) ) ;
#272 = DIRECTION ( 'NONE',  ( -3.491481338843133355E-15, 1.224646799147353454E-16, -1.000000000000000000 ) ) ;
#273 = SECURITY_CLASSIFICATION ( '', '', #67 ) ;
#274 = EDGE_LOOP ( 'NONE', ( #54, #178, #191 ) ) ;
#275 = ADVANCED_FACE ( 'NONE', ( #250 ), #186, .T. ) ;
#276 = CARTESIAN_POINT ( 'NONE',  ( 1.745740669421579102E-15, -1.084202172485513802E-16, 0.5000000000000035527 ) ) ;
#277 = LINE ( 'NONE', #252, #231 ) ;
#278 = LINE ( 'NONE', #256, #25 ) ;
#279 = AXIS2_PLACEMENT_3D ( 'NONE', #144, #57, #80 ) ;
#280 = PRODUCT_DEFINITION_SHAPE ( 'NONE', 'NONE',  #195 ) ;
#281 = CARTESIAN_POINT ( 'NONE',  ( 1.117274028429802674E-13, -3.918869757271531052E-15, 32.00000000000000000 ) ) ;
#282 = UNCERTAINTY_MEASURE_WITH_UNIT (LENGTH_MEASURE( 1.000000000000000082E-05 ), #31, 'distance_accuracy_value', 'NONE');
#283 = CARTESIAN_POINT ( 'NONE',  ( 0.0000000000000000000, 0.0000000000000000000, 0.0000000000000000000 ) ) ;
#284 = APPLICATION_PROTOCOL_DEFINITION ( 'international standard', 'config_control_design', 1994, #24 ) ;
#285 = PERSON_AND_ORGANIZATION ( #56, #245 ) ;
#286 = EDGE_CURVE ( 'NONE', #32, #118, #209, .T. ) ;
#287 = APPROVAL_DATE_TIME ( #260, #49 ) ;
ENDSEC;
END-ISO-10303-21;
