ISO-10303-21;
HEADER;
FILE_DESCRIPTION (( 'STEP AP203' ),
    '1' );
FILE_NAME ('953780.step',
    '2021-09-21T07:47:03',
    ( '' ),
    ( '' ),
    'SwSTEP 2.0',
    'SolidWorks 2019',
    '' );
FILE_SCHEMA (( 'CONFIG_CONTROL_DESIGN' ));
ENDSEC;

DATA;
#1 = PERSON ( 'UNSPECIFIED', 'UNSPECIFIED', 'UNSPECIFIED', ('UNSPECIFIED'), ('UNSPECIFIED'), ('UNSPECIFIED') ) ;
#2 = EDGE_CURVE ( 'NONE', #11, #120, #269, .T. ) ;
#3 = AXIS2_PLACEMENT_3D ( 'NONE', #207, #53, #54 ) ;
#4 = LOCAL_TIME ( 9, 47, 3.000000000000000000, #244 ) ;
#5 = VERTEX_POINT ( 'NONE', #32 ) ;
#6 = EDGE_CURVE ( 'NONE', #98, #65, #146, .T. ) ;
#7 = MANIFOLD_SOLID_BREP ( 'Corps-Déplacer/Copier1[1]', #56 ) ;
#8 = AXIS2_PLACEMENT_3D ( 'NONE', #51, #267, #124 ) ;
#9 = AXIS2_PLACEMENT_3D ( 'NONE', #114, #195, #210 ) ;
#10 = PLANE ( 'NONE',  #211 ) ;
#11 = VERTEX_POINT ( 'NONE', #202 ) ;
#12 = APPROVAL_DATE_TIME ( #206, #228 ) ;
#13 = EDGE_CURVE ( 'NONE', #127, #65, #223, .T. ) ;
#14 = APPROVAL_PERSON_ORGANIZATION ( #192, #228, #34 ) ;
#15 = LINE ( 'NONE', #110, #187 ) ;
#16 = APPLICATION_CONTEXT ( 'configuration controlled 3d designs of mechanical parts and assemblies' ) ;
#17 = PERSON_AND_ORGANIZATION_ROLE ( 'creator' ) ;
#18 = DIRECTION ( 'NONE',  ( -4.275831445896959482E-31, -1.000000000000000000, -1.224646799147353454E-16 ) ) ;
#19 = PRODUCT_RELATED_PRODUCT_CATEGORY ( 'detail', '', ( #26 ) ) ;
#20 = PERSON_AND_ORGANIZATION ( #1, #165 ) ;
#21 = CYLINDRICAL_SURFACE ( 'NONE', #271, 0.4999999999999980571 ) ;
#22 = DIRECTION ( 'NONE',  ( -3.491481338843133355E-15, 1.224646799147353454E-16, -1.000000000000000000 ) ) ;
#23 =( NAMED_UNIT ( * ) PLANE_ANGLE_UNIT ( ) SI_UNIT ( $, .RADIAN. ) );
#24 = DIRECTION ( 'NONE',  ( 7.703719777549001216E-31, 1.000000000000000000, 2.168404344971025138E-16 ) ) ;
#25 = CC_DESIGN_APPROVAL ( #281, ( #85 ) ) ;
#26 = PRODUCT ( '953780', '953780', '', ( #225 ) ) ;
#27 = ORIENTED_EDGE ( 'NONE', *, *, #148, .T. ) ;
#28 = CARTESIAN_POINT ( 'NONE',  ( 2.137915722948471421E-31, 0.4999999999999980571, 6.123233995736743849E-17 ) ) ;
#29 = DIRECTION ( 'NONE',  ( 3.491481338843133355E-15, -1.224646799147353454E-16, 1.000000000000000000 ) ) ;
#30 = CARTESIAN_POINT ( 'NONE',  ( 1.745740669421572989E-15, 0.4999999999999961142, 0.5000000000000017764 ) ) ;
#31 = PERSON_AND_ORGANIZATION ( #1, #165 ) ;
#32 = CARTESIAN_POINT ( 'NONE',  ( 5.662323002921571772E-14, -0.5000000000000038858, 31.89999999999999858 ) ) ;
#33 = PERSON_AND_ORGANIZATION ( #1, #165 ) ;
#34 = APPROVAL_ROLE ( '' ) ;
#35 = ADVANCED_FACE ( 'NONE', ( #76 ), #10, .F. ) ;
#36 = ORIENTED_EDGE ( 'NONE', *, *, #107, .F. ) ;
#37 = APPROVAL_DATE_TIME ( #39, #95 ) ;
#38 = ADVANCED_BREP_SHAPE_REPRESENTATION ( '953780', ( #7, #109, #135 ), #153 ) ;
#39 = DATE_AND_TIME ( #237, #230 ) ;
#40 = CARTESIAN_POINT ( 'NONE',  ( 6.123233995736721662E-17, -0.4999999999999980571, -6.123233995736764803E-17 ) ) ;
#41 = CARTESIAN_POINT ( 'NONE',  ( 1.745740669421572594E-15, -6.123233995736786990E-17, 0.5000000000000016653 ) ) ;
#42 = EDGE_CURVE ( 'NONE', #73, #82, #249, .T. ) ;
#43 = CC_DESIGN_APPROVAL ( #228, ( #282 ) ) ;
#44 = DIRECTION ( 'NONE',  ( 0.0000000000000000000, 1.000000000000000000, 0.0000000000000000000 ) ) ;
#45 = PLANE ( 'NONE',  #159 ) ;
#46 = CC_DESIGN_DATE_AND_TIME_ASSIGNMENT ( #186, #274, ( #85 ) ) ;
#47 = ORIENTED_EDGE ( 'NONE', *, *, #273, .T. ) ;
#48 = VERTEX_POINT ( 'NONE', #143 ) ;
#49 = CONICAL_SURFACE ( 'NONE', #263, 0.4000000000000000222, 0.7853981633974339571 ) ;
#50 = PERSON_AND_ORGANIZATION_ROLE ( 'design_owner' ) ;
#51 = CARTESIAN_POINT ( 'NONE',  ( 1.745740669421572594E-15, -6.123233995736786990E-17, 0.5000000000000016653 ) ) ;
#52 = EDGE_LOOP ( 'NONE', ( #119, #97 ) ) ;
#53 = DIRECTION ( 'NONE',  ( -3.491481338843133355E-15, 1.224646799147353454E-16, -1.000000000000000000 ) ) ;
#54 = DIRECTION ( 'NONE',  ( 0.0000000000000000000, 1.000000000000000000, 0.0000000000000000000 ) ) ;
#55 = ORIENTED_EDGE ( 'NONE', *, *, #158, .T. ) ;
#56 = CLOSED_SHELL ( 'NONE', ( #221, #168, #35, #139, #215, #205 ) ) ;
#57 = CALENDAR_DATE ( 2021, 21, 9 ) ;
#58 = CONICAL_SURFACE ( 'NONE', #222, 0.4000000000000000222, 0.7853981633974339571 ) ;
#59 = CC_DESIGN_DATE_AND_TIME_ASSIGNMENT ( #167, #254, ( #282 ) ) ;
#60 = EDGE_LOOP ( 'NONE', ( #166, #27, #102, #140 ) ) ;
#61 = CC_DESIGN_PERSON_AND_ORGANIZATION_ASSIGNMENT ( #31, #50, ( #26 ) ) ;
#62 = FACE_OUTER_BOUND ( 'NONE', #96, .T. ) ;
#63 = VECTOR ( 'NONE', #261, 1000.000000000000000 ) ;
#64 = DIRECTION ( 'NONE',  ( -3.491481338843133355E-15, 1.224646799147353454E-16, -1.000000000000000000 ) ) ;
#65 = VERTEX_POINT ( 'NONE', #30 ) ;
#66 = DIRECTION ( 'NONE',  ( 0.0000000000000000000, 1.000000000000000000, 0.0000000000000000000 ) ) ;
#67 = FACE_OUTER_BOUND ( 'NONE', #219, .T. ) ;
#68 = DIRECTION ( 'NONE',  ( 0.0000000000000000000, 1.000000000000000000, 0.0000000000000000000 ) ) ;
#69 = ORIENTED_EDGE ( 'NONE', *, *, #266, .F. ) ;
#70 = LINE ( 'NONE', #217, #141 ) ;
#71 = ADVANCED_FACE ( 'NONE', ( #72 ), #164, .T. ) ;
#72 = FACE_OUTER_BOUND ( 'NONE', #145, .T. ) ;
#73 = VERTEX_POINT ( 'NONE', #226 ) ;
#74 = CIRCLE ( 'NONE', #188, 0.4999999999999962252 ) ;
#75 = APPLICATION_PROTOCOL_DEFINITION ( 'international standard', 'config_control_design', 1994, #16 ) ;
#76 = FACE_OUTER_BOUND ( 'NONE', #52, .T. ) ;
#77 = CARTESIAN_POINT ( 'NONE',  ( 1.116079378819997586E-13, -0.4000000000000039080, 32.00000000000000000 ) ) ;
#78 = CIRCLE ( 'NONE', #259, 0.4999999999999962252 ) ;
#79 = SECURITY_CLASSIFICATION_LEVEL ( 'unclassified' ) ;
#80 = CC_DESIGN_SECURITY_CLASSIFICATION ( #282, ( #182 ) ) ;
#81 = ORIENTED_EDGE ( 'NONE', *, *, #200, .F. ) ;
#82 = VERTEX_POINT ( 'NONE', #77 ) ;
#83 = APPLICATION_CONTEXT ( 'configuration controlled 3d designs of mechanical parts and assemblies' ) ;
#84 = APPROVAL_ROLE ( '' ) ;
#85 = PRODUCT_DEFINITION ( 'UNKNOWN', '', #182, #115 ) ;
#86 = DIRECTION ( 'NONE',  ( -3.491481338843133355E-15, 1.224646799147353454E-16, -1.000000000000000000 ) ) ;
#87 = CARTESIAN_POINT ( 'NONE',  ( 0.0000000000000000000, 0.0000000000000000000, 0.0000000000000000000 ) ) ;
#88 = AXIS2_PLACEMENT_3D ( 'NONE', #175, #255, #44 ) ;
#89 = DIRECTION ( 'NONE',  ( -3.491481338843133355E-15, 1.224646799147353454E-16, -1.000000000000000000 ) ) ;
#90 = EDGE_CURVE ( 'NONE', #65, #98, #78, .T. ) ;
#91 = CARTESIAN_POINT ( 'NONE',  ( 1.113782547090959477E-13, -3.906623289280056906E-15, 31.89999999999999858 ) ) ;
#92 = DIRECTION ( 'NONE',  ( 4.275831445896959482E-31, 1.000000000000000000, 1.224646799147353454E-16 ) ) ;
#93 = UNCERTAINTY_MEASURE_WITH_UNIT (LENGTH_MEASURE( 1.000000000000000082E-05 ), #136, 'distance_accuracy_value', 'NONE');
#94 = AXIS2_PLACEMENT_3D ( 'NONE', #113, #238, #92 ) ;
#95 = APPROVAL ( #132, 'UNSPECIFIED' ) ;
#96 = EDGE_LOOP ( 'NONE', ( #100, #69 ) ) ;
#97 = ORIENTED_EDGE ( 'NONE', *, *, #6, .T. ) ;
#98 = VERTEX_POINT ( 'NONE', #229 ) ;
#99 = DIRECTION ( 'NONE',  ( -7.703719777549001216E-31, -1.000000000000000000, -2.168404344971025138E-16 ) ) ;
#100 = ORIENTED_EDGE ( 'NONE', *, *, #286, .F. ) ;
#101 = EDGE_CURVE ( 'NONE', #11, #48, #15, .T. ) ;
#102 = ORIENTED_EDGE ( 'NONE', *, *, #13, .T. ) ;
#103 = DATE_AND_TIME ( #161, #4 ) ;
#104 = ORIENTED_EDGE ( 'NONE', *, *, #148, .F. ) ;
#105 = ORIENTED_EDGE ( 'NONE', *, *, #286, .T. ) ;
#106 = VECTOR ( 'NONE', #272, 1000.000000000000000 ) ;
#107 = EDGE_CURVE ( 'NONE', #82, #5, #70, .T. ) ;
#108 = VECTOR ( 'NONE', #174, 1000.000000000000000 ) ;
#109 = MANIFOLD_SOLID_BREP ( 'Corps-Déplacer/Copier1[2]', #118 ) ;
#110 = CARTESIAN_POINT ( 'NONE',  ( 1.806973009378940168E-15, 0.4999999999999961142, 0.5000000000000017764 ) ) ;
#111 = PERSON_AND_ORGANIZATION ( #1, #165 ) ;
#112 = DIRECTION ( 'NONE',  ( 3.491481338843133355E-15, -1.224646799147353454E-16, 1.000000000000000000 ) ) ;
#113 = CARTESIAN_POINT ( 'NONE',  ( 1.117274028429802674E-13, 2.999519565323658083E-33, 32.00000000000000000 ) ) ;
#114 = CARTESIAN_POINT ( 'NONE',  ( 0.0000000000000000000, 0.0000000000000000000, 0.0000000000000000000 ) ) ;
#115 = DESIGN_CONTEXT ( 'detailed design', #16, 'design' ) ;
#116 = DIRECTION ( 'NONE',  ( 4.275831445896959482E-31, 1.000000000000000000, 1.224646799147353454E-16 ) ) ;
#117 = DIRECTION ( 'NONE',  ( 0.0000000000000000000, 1.000000000000000000, 0.0000000000000000000 ) ) ;
#118 = CLOSED_SHELL ( 'NONE', ( #71, #251, #262 ) ) ;
#119 = ORIENTED_EDGE ( 'NONE', *, *, #90, .T. ) ;
#120 = VERTEX_POINT ( 'NONE', #208 ) ;
#121 = APPROVAL_STATUS ( 'not_yet_approved' ) ;
#122 = DIRECTION ( 'NONE',  ( -4.275831445896959482E-31, -1.000000000000000000, -1.224646799147353454E-16 ) ) ;
#123 = CARTESIAN_POINT ( 'NONE',  ( 1.745740669421572594E-15, -6.123233995736786990E-17, 0.5000000000000016653 ) ) ;
#124 = DIRECTION ( 'NONE',  ( 7.703719777549001216E-31, 1.000000000000000000, 2.168404344971025138E-16 ) ) ;
#125 = APPROVAL_PERSON_ORGANIZATION ( #33, #281, #199 ) ;
#126 = CARTESIAN_POINT ( 'NONE',  ( 0.0000000000000000000, 0.0000000000000000000, 0.0000000000000000000 ) ) ;
#127 = VERTEX_POINT ( 'NONE', #283 ) ;
#128 = CALENDAR_DATE ( 2021, 21, 9 ) ;
#129 = EDGE_CURVE ( 'NONE', #5, #98, #284, .T. ) ;
#130 = CIRCLE ( 'NONE', #197, 0.5000000000000000000 ) ;
#131 = FACE_OUTER_BOUND ( 'NONE', #234, .T. ) ;
#132 = APPROVAL_STATUS ( 'not_yet_approved' ) ;
#133 = DIRECTION ( 'NONE',  ( -2.382254525458752968E-15, -0.7071067811865372477, -0.7071067811865578978 ) ) ;
#134 = FACE_OUTER_BOUND ( 'NONE', #245, .T. ) ;
#135 = AXIS2_PLACEMENT_3D ( 'NONE', #126, #268, #243 ) ;
#136 =( LENGTH_UNIT ( ) NAMED_UNIT ( * ) SI_UNIT ( .MILLI., .METRE. ) );
#137 =( NAMED_UNIT ( * ) SI_UNIT ( $, .STERADIAN. ) SOLID_ANGLE_UNIT ( ) );
#138 = ORIENTED_EDGE ( 'NONE', *, *, #266, .T. ) ;
#139 = ADVANCED_FACE ( 'NONE', ( #196 ), #258, .T. ) ;
#140 = ORIENTED_EDGE ( 'NONE', *, *, #6, .F. ) ;
#141 = VECTOR ( 'NONE', #133, 999.9999999999998863 ) ;
#142 = CC_DESIGN_APPROVAL ( #95, ( #182 ) ) ;
#143 = CARTESIAN_POINT ( 'NONE',  ( 1.806973009378940168E-15, 0.4999999999999961142, 0.5000000000000017764 ) ) ;
#144 = DIRECTION ( 'NONE',  ( 7.703719777549001216E-31, 1.000000000000000000, 2.168404344971025138E-16 ) ) ;
#145 = EDGE_LOOP ( 'NONE', ( #198, #232, #138 ) ) ;
#146 = CIRCLE ( 'NONE', #8, 0.4999999999999962252 ) ;
#147 = AXIS2_PLACEMENT_3D ( 'NONE', #41, #22, #24 ) ;
#148 = EDGE_CURVE ( 'NONE', #5, #127, #130, .T. ) ;
#149 = CARTESIAN_POINT ( 'NONE',  ( 1.745740669421572594E-15, -6.123233995736786990E-17, 0.5000000000000016653 ) ) ;
#150 = FACE_OUTER_BOUND ( 'NONE', #157, .T. ) ;
#151 = AXIS2_PLACEMENT_3D ( 'NONE', #123, #201, #99 ) ;
#152 = CARTESIAN_POINT ( 'NONE',  ( 1.745740669421572594E-15, -6.123233995736786990E-17, 0.5000000000000016653 ) ) ;
#153 =( GEOMETRIC_REPRESENTATION_CONTEXT ( 3 ) GLOBAL_UNCERTAINTY_ASSIGNED_CONTEXT ( ( #93 ) ) GLOBAL_UNIT_ASSIGNED_CONTEXT ( ( #136, #23, #137 ) ) REPRESENTATION_CONTEXT ( 'NONE', 'WORKASPACE' ) );
#154 = CC_DESIGN_PERSON_AND_ORGANIZATION_ASSIGNMENT ( #235, #233, ( #85 ) ) ;
#155 = CARTESIAN_POINT ( 'NONE',  ( 1.117274028429802674E-13, -3.918869757271531052E-15, 32.00000000000000000 ) ) ;
#156 = ORIENTED_EDGE ( 'NONE', *, *, #107, .T. ) ;
#157 = EDGE_LOOP ( 'NONE', ( #36, #270, #55, #104 ) ) ;
#158 = EDGE_CURVE ( 'NONE', #73, #127, #216, .T. ) ;
#159 = AXIS2_PLACEMENT_3D ( 'NONE', #176, #194, #18 ) ;
#160 = ORIENTED_EDGE ( 'NONE', *, *, #158, .F. ) ;
#161 = CALENDAR_DATE ( 2021, 21, 9 ) ;
#162 = ORIENTED_EDGE ( 'NONE', *, *, #101, .F. ) ;
#163 = CARTESIAN_POINT ( 'NONE',  ( 1.745740669421572594E-15, -6.123233995736786990E-17, 0.5000000000000016653 ) ) ;
#164 = CONICAL_SURFACE ( 'NONE', #151, 0.4999999999999962252, 0.7853981633974428389 ) ;
#165 = ORGANIZATION ( 'UNSPECIFIED', 'UNSPECIFIED', '' ) ;
#166 = ORIENTED_EDGE ( 'NONE', *, *, #129, .F. ) ;
#167 = DATE_AND_TIME ( #169, #173 ) ;
#168 = ADVANCED_FACE ( 'NONE', ( #67 ), #21, .T. ) ;
#169 = CALENDAR_DATE ( 2021, 21, 9 ) ;
#170 = SHAPE_DEFINITION_REPRESENTATION ( #265, #38 ) ;
#171 = DIRECTION ( 'NONE',  ( 7.703719777549001216E-31, 1.000000000000000000, 2.168404344971025138E-16 ) ) ;
#172 = ORIENTED_EDGE ( 'NONE', *, *, #2, .T. ) ;
#173 = LOCAL_TIME ( 9, 47, 3.000000000000000000, #248 ) ;
#174 = DIRECTION ( 'NONE',  ( -2.468850131082300448E-15, 0.7071067811865374697, -0.7071067811865575647 ) ) ;
#175 = CARTESIAN_POINT ( 'NONE',  ( 1.117274028429802674E-13, -3.918869757271531052E-15, 32.00000000000000000 ) ) ;
#176 = CARTESIAN_POINT ( 'NONE',  ( 1.745740669421579102E-15, -1.084202172485513802E-16, 0.5000000000000035527 ) ) ;
#177 = CC_DESIGN_PERSON_AND_ORGANIZATION_ASSIGNMENT ( #279, #17, ( #182 ) ) ;
#178 = CARTESIAN_POINT ( 'NONE',  ( 1.117274028429802674E-13, -3.918869757271531052E-15, 32.00000000000000000 ) ) ;
#179 = LOCAL_TIME ( 9, 47, 3.000000000000000000, #203 ) ;
#180 = CIRCLE ( 'NONE', #88, 0.4000000000000000222 ) ;
#181 = DIRECTION ( 'NONE',  ( -3.491481338843133355E-15, 1.224646799147353454E-16, -1.000000000000000000 ) ) ;
#182 = PRODUCT_DEFINITION_FORMATION_WITH_SPECIFIED_SOURCE ( 'ANY', '', #26, .NOT_KNOWN. ) ;
#183 = CARTESIAN_POINT ( 'NONE',  ( 1.745740669421579102E-15, -1.084202172485513802E-16, 0.5000000000000035527 ) ) ;
#184 = PERSON_AND_ORGANIZATION_ROLE ( 'classification_officer' ) ;
#185 = ORIENTED_EDGE ( 'NONE', *, *, #42, .F. ) ;
#186 = DATE_AND_TIME ( #128, #204 ) ;
#187 = VECTOR ( 'NONE', #190, 1000.000000000000000 ) ;
#188 = AXIS2_PLACEMENT_3D ( 'NONE', #152, #193, #171 ) ;
#189 = COORDINATED_UNIVERSAL_TIME_OFFSET ( 1, 0, .AHEAD. ) ;
#190 = DIRECTION ( 'NONE',  ( 2.555445736705828206E-15, 0.7071067811865435759, 0.7071067811865515695 ) ) ;
#191 = CC_DESIGN_PERSON_AND_ORGANIZATION_ASSIGNMENT ( #111, #184, ( #282 ) ) ;
#192 = PERSON_AND_ORGANIZATION ( #1, #165 ) ;
#193 = DIRECTION ( 'NONE',  ( -3.491481338843133355E-15, 1.224646799147353454E-16, -1.000000000000000000 ) ) ;
#194 = DIRECTION ( 'NONE',  ( 3.491481338843133355E-15, -1.224646799147353454E-16, 1.000000000000000000 ) ) ;
#195 = DIRECTION ( 'NONE',  ( -3.491481338843133355E-15, 1.224646799147353454E-16, -1.000000000000000000 ) ) ;
#196 = FACE_OUTER_BOUND ( 'NONE', #60, .T. ) ;
#197 = AXIS2_PLACEMENT_3D ( 'NONE', #257, #285, #66 ) ;
#198 = ORIENTED_EDGE ( 'NONE', *, *, #2, .F. ) ;
#199 = APPROVAL_ROLE ( '' ) ;
#200 = EDGE_CURVE ( 'NONE', #82, #73, #180, .T. ) ;
#201 = DIRECTION ( 'NONE',  ( 3.491481338843133355E-15, -1.224646799147353454E-16, 1.000000000000000000 ) ) ;
#202 = CARTESIAN_POINT ( 'NONE',  ( 0.0000000000000000000, 0.0000000000000000000, 0.0000000000000000000 ) ) ;
#203 = COORDINATED_UNIVERSAL_TIME_OFFSET ( 1, 0, .AHEAD. ) ;
#204 = LOCAL_TIME ( 9, 47, 3.000000000000000000, #189 ) ;
#205 = ADVANCED_FACE ( 'NONE', ( #131 ), #240, .F. ) ;
#206 = DATE_AND_TIME ( #57, #179 ) ;
#207 = CARTESIAN_POINT ( 'NONE',  ( 1.117274028429802674E-13, -3.918869757271531052E-15, 32.00000000000000000 ) ) ;
#208 = CARTESIAN_POINT ( 'NONE',  ( 1.745740669421572200E-15, -0.4999999999999963363, 0.5000000000000015543 ) ) ;
#209 = COORDINATED_UNIVERSAL_TIME_OFFSET ( 1, 0, .AHEAD. ) ;
#210 = DIRECTION ( 'NONE',  ( 4.275831445896959482E-31, 1.000000000000000000, 1.224646799147353454E-16 ) ) ;
#211 = AXIS2_PLACEMENT_3D ( 'NONE', #183, #29, #122 ) ;
#212 = CIRCLE ( 'NONE', #260, 0.5000000000000000000 ) ;
#213 = FACE_OUTER_BOUND ( 'NONE', #256, .T. ) ;
#214 = APPLICATION_PROTOCOL_DEFINITION ( 'international standard', 'config_control_design', 1994, #83 ) ;
#215 = ADVANCED_FACE ( 'NONE', ( #150 ), #49, .T. ) ;
#216 = LINE ( 'NONE', #278, #108 ) ;
#217 = CARTESIAN_POINT ( 'NONE',  ( 1.117763887149461766E-13, -0.4000000000000039080, 32.00000000000000000 ) ) ;
#218 = CC_DESIGN_PERSON_AND_ORGANIZATION_ASSIGNMENT ( #20, #231, ( #182 ) ) ;
#219 = EDGE_LOOP ( 'NONE', ( #47, #227, #242, #276 ) ) ;
#220 = CARTESIAN_POINT ( 'NONE',  ( 1.745740669421572200E-15, -0.4999999999999963363, 0.5000000000000015543 ) ) ;
#221 = ADVANCED_FACE ( 'NONE', ( #134 ), #58, .T. ) ;
#222 = AXIS2_PLACEMENT_3D ( 'NONE', #155, #64, #236 ) ;
#223 = LINE ( 'NONE', #28, #253 ) ;
#224 = ORIENTED_EDGE ( 'NONE', *, *, #42, .T. ) ;
#225 = MECHANICAL_CONTEXT ( 'NONE', #83, 'mechanical' ) ;
#226 = CARTESIAN_POINT ( 'NONE',  ( 1.117274028429802674E-13, 0.3999999999999961364, 32.00000000000000000 ) ) ;
#227 = ORIENTED_EDGE ( 'NONE', *, *, #129, .T. ) ;
#228 = APPROVAL ( #252, 'UNSPECIFIED' ) ;
#229 = CARTESIAN_POINT ( 'NONE',  ( 5.662323002921603958E-14, -0.4999999999999963363, 0.5000000000000015543 ) ) ;
#230 = LOCAL_TIME ( 9, 47, 3.000000000000000000, #209 ) ;
#231 = PERSON_AND_ORGANIZATION_ROLE ( 'design_supplier' ) ;
#232 = ORIENTED_EDGE ( 'NONE', *, *, #101, .T. ) ;
#233 = PERSON_AND_ORGANIZATION_ROLE ( 'creator' ) ;
#234 = EDGE_LOOP ( 'NONE', ( #185, #81 ) ) ;
#235 = PERSON_AND_ORGANIZATION ( #1, #165 ) ;
#236 = DIRECTION ( 'NONE',  ( 0.0000000000000000000, 1.000000000000000000, 0.0000000000000000000 ) ) ;
#237 = CALENDAR_DATE ( 2021, 21, 9 ) ;
#238 = DIRECTION ( 'NONE',  ( -3.491481338843133355E-15, 1.224646799147353454E-16, -1.000000000000000000 ) ) ;
#239 = DIRECTION ( 'NONE',  ( -7.703719777549001216E-31, -1.000000000000000000, -2.168404344971025138E-16 ) ) ;
#240 = PLANE ( 'NONE',  #94 ) ;
#241 = AXIS2_PLACEMENT_3D ( 'NONE', #149, #112, #239 ) ;
#242 = ORIENTED_EDGE ( 'NONE', *, *, #90, .F. ) ;
#243 = DIRECTION ( 'NONE',  ( 1.000000000000000000, 0.0000000000000000000, 0.0000000000000000000 ) ) ;
#244 = COORDINATED_UNIVERSAL_TIME_OFFSET ( 1, 0, .AHEAD. ) ;
#245 = EDGE_LOOP ( 'NONE', ( #224, #156, #264, #160 ) ) ;
#246 = APPROVAL_DATE_TIME ( #103, #281 ) ;
#247 = DIRECTION ( 'NONE',  ( -3.491481338843133355E-15, 1.224646799147353454E-16, -1.000000000000000000 ) ) ;
#248 = COORDINATED_UNIVERSAL_TIME_OFFSET ( 1, 0, .AHEAD. ) ;
#249 = CIRCLE ( 'NONE', #3, 0.4000000000000000222 ) ;
#250 = APPROVAL_PERSON_ORGANIZATION ( #277, #95, #84 ) ;
#251 = ADVANCED_FACE ( 'NONE', ( #213 ), #287, .T. ) ;
#252 = APPROVAL_STATUS ( 'not_yet_approved' ) ;
#253 = VECTOR ( 'NONE', #181, 1000.000000000000000 ) ;
#254 = DATE_TIME_ROLE ( 'classification_date' ) ;
#255 = DIRECTION ( 'NONE',  ( -3.491481338843133355E-15, 1.224646799147353454E-16, -1.000000000000000000 ) ) ;
#256 = EDGE_LOOP ( 'NONE', ( #162, #172, #105 ) ) ;
#257 = CARTESIAN_POINT ( 'NONE',  ( 1.113782547090959477E-13, -3.906623289280056906E-15, 31.89999999999999858 ) ) ;
#258 = CYLINDRICAL_SURFACE ( 'NONE', #9, 0.4999999999999980571 ) ;
#259 = AXIS2_PLACEMENT_3D ( 'NONE', #163, #247, #144 ) ;
#260 = AXIS2_PLACEMENT_3D ( 'NONE', #91, #86, #117 ) ;
#261 = DIRECTION ( 'NONE',  ( -3.491481338843133355E-15, 1.224646799147353454E-16, -1.000000000000000000 ) ) ;
#262 = ADVANCED_FACE ( 'NONE', ( #62 ), #45, .T. ) ;
#263 = AXIS2_PLACEMENT_3D ( 'NONE', #178, #280, #68 ) ;
#264 = ORIENTED_EDGE ( 'NONE', *, *, #273, .F. ) ;
#265 = PRODUCT_DEFINITION_SHAPE ( 'NONE', 'NONE',  #85 ) ;
#266 = EDGE_CURVE ( 'NONE', #48, #120, #275, .T. ) ;
#267 = DIRECTION ( 'NONE',  ( -3.491481338843133355E-15, 1.224646799147353454E-16, -1.000000000000000000 ) ) ;
#268 = DIRECTION ( 'NONE',  ( 0.0000000000000000000, 0.0000000000000000000, 1.000000000000000000 ) ) ;
#269 = LINE ( 'NONE', #220, #106 ) ;
#270 = ORIENTED_EDGE ( 'NONE', *, *, #200, .T. ) ;
#271 = AXIS2_PLACEMENT_3D ( 'NONE', #87, #89, #116 ) ;
#272 = DIRECTION ( 'NONE',  ( 2.468850131082278754E-15, -0.7071067811865437980, 0.7071067811865513475 ) ) ;
#273 = EDGE_CURVE ( 'NONE', #127, #5, #212, .T. ) ;
#274 = DATE_TIME_ROLE ( 'creation_date' ) ;
#275 = CIRCLE ( 'NONE', #147, 0.4999999999999962252 ) ;
#276 = ORIENTED_EDGE ( 'NONE', *, *, #13, .F. ) ;
#277 = PERSON_AND_ORGANIZATION ( #1, #165 ) ;
#278 = CARTESIAN_POINT ( 'NONE',  ( 1.117274028429802674E-13, 0.3999999999999961364, 32.00000000000000000 ) ) ;
#279 = PERSON_AND_ORGANIZATION ( #1, #165 ) ;
#280 = DIRECTION ( 'NONE',  ( -3.491481338843133355E-15, 1.224646799147353454E-16, -1.000000000000000000 ) ) ;
#281 = APPROVAL ( #121, 'UNSPECIFIED' ) ;
#282 = SECURITY_CLASSIFICATION ( '', '', #79 ) ;
#283 = CARTESIAN_POINT ( 'NONE',  ( 1.113782547090959477E-13, 0.4999999999999961142, 31.89999999999999858 ) ) ;
#284 = LINE ( 'NONE', #40, #63 ) ;
#285 = DIRECTION ( 'NONE',  ( -3.491481338843133355E-15, 1.224646799147353454E-16, -1.000000000000000000 ) ) ;
#286 = EDGE_CURVE ( 'NONE', #120, #48, #74, .T. ) ;
#287 = CONICAL_SURFACE ( 'NONE', #241, 0.4999999999999962252, 0.7853981633974428389 ) ;
ENDSEC;
END-ISO-10303-21;
