ISO-10303-21;
HEADER;
FILE_DESCRIPTION (( 'STEP AP203' ),
    '1' );
FILE_NAME ('953779.step',
    '2021-09-21T07:47:02',
    ( '' ),
    ( '' ),
    'SwSTEP 2.0',
    'SolidWorks 2019',
    '' );
FILE_SCHEMA (( 'CONFIG_CONTROL_DESIGN' ));
ENDSEC;

DATA;
#1 = FACE_OUTER_BOUND ( 'NONE', #112, .T. ) ;
#2 = CALENDAR_DATE ( 2021, 21, 9 ) ;
#3 = DATE_AND_TIME ( #248, #254 ) ;
#4 = AXIS2_PLACEMENT_3D ( 'NONE', #25, #77, #204 ) ;
#5 = PERSON_AND_ORGANIZATION_ROLE ( 'creator' ) ;
#6 = PRODUCT_RELATED_PRODUCT_CATEGORY ( 'detail', '', ( #35 ) ) ;
#7 = VECTOR ( 'NONE', #62, 999.9999999999998863 ) ;
#8 = ORIENTED_EDGE ( 'NONE', *, *, #232, .F. ) ;
#9 = ADVANCED_FACE ( 'NONE', ( #231 ), #81, .T. ) ;
#10 = VERTEX_POINT ( 'NONE', #141 ) ;
#11 = CONICAL_SURFACE ( 'NONE', #185, 0.5999999999999924283, 0.7853981633975032350 ) ;
#12 = AXIS2_PLACEMENT_3D ( 'NONE', #264, #245, #40 ) ;
#13 = DIRECTION ( 'NONE',  ( 5.135813185032706597E-31, 1.000000000000000000, 1.445602896647361103E-16 ) ) ;
#14 = EDGE_CURVE ( 'NONE', #114, #36, #105, .T. ) ;
#15 = LINE ( 'NONE', #115, #133 ) ;
#16 = LINE ( 'NONE', #242, #7 ) ;
#17 = SECURITY_CLASSIFICATION ( '', '', #168 ) ;
#18 = ADVANCED_FACE ( 'NONE', ( #128 ), #256, .T. ) ;
#19 = DIRECTION ( 'NONE',  ( -3.491481338843133355E-15, 1.224646799147353454E-16, -1.000000000000000000 ) ) ;
#20 = COORDINATED_UNIVERSAL_TIME_OFFSET ( 1, 0, .AHEAD. ) ;
#21 = DIRECTION ( 'NONE',  ( 0.0000000000000000000, 1.000000000000000000, 0.0000000000000000000 ) ) ;
#22 = DIRECTION ( 'NONE',  ( 0.0000000000000000000, 1.000000000000000000, 0.0000000000000000000 ) ) ;
#23 = LOCAL_TIME ( 9, 47, 2.000000000000000000, #188 ) ;
#24 = PERSON_AND_ORGANIZATION ( #32, #91 ) ;
#25 = CARTESIAN_POINT ( 'NONE',  ( 2.618611004132349228E-15, 7.491723424762505289E-31, 0.7499999999999997780 ) ) ;
#26 = EDGE_CURVE ( 'NONE', #111, #36, #196, .T. ) ;
#27 = DIRECTION ( 'NONE',  ( -4.275831445896959482E-31, -1.000000000000000000, -1.224646799147353454E-16 ) ) ;
#28 = APPROVAL ( #164, 'UNSPECIFIED' ) ;
#29 = DIRECTION ( 'NONE',  ( -3.491481338843133355E-15, 1.224646799147353454E-16, -1.000000000000000000 ) ) ;
#30 = EDGE_LOOP ( 'NONE', ( #33, #258, #273 ) ) ;
#31 = ORIENTED_EDGE ( 'NONE', *, *, #127, .T. ) ;
#32 = PERSON ( 'UNSPECIFIED', 'UNSPECIFIED', 'UNSPECIFIED', ('UNSPECIFIED'), ('UNSPECIFIED'), ('UNSPECIFIED') ) ;
#33 = ORIENTED_EDGE ( 'NONE', *, *, #192, .F. ) ;
#34 = EDGE_CURVE ( 'NONE', #229, #150, #197, .T. ) ;
#35 = PRODUCT ( '953779', '953779', '', ( #189 ) ) ;
#36 = VERTEX_POINT ( 'NONE', #83 ) ;
#37 = ADVANCED_FACE ( 'NONE', ( #171 ), #65, .F. ) ;
#38 = AXIS2_PLACEMENT_3D ( 'NONE', #45, #98, #179 ) ;
#39 = AXIS2_PLACEMENT_3D ( 'NONE', #104, #29, #52 ) ;
#40 = DIRECTION ( 'NONE',  ( 0.0000000000000000000, 1.000000000000000000, 0.0000000000000000000 ) ) ;
#41 = MANIFOLD_SOLID_BREP ( 'Corps-Déplacer/Copier1[1]', #160 ) ;
#42 = DIRECTION ( 'NONE',  ( -3.491481338843133355E-15, 1.224646799147353454E-16, -1.000000000000000000 ) ) ;
#43 = FACE_OUTER_BOUND ( 'NONE', #175, .T. ) ;
#44 = APPROVAL_PERSON_ORGANIZATION ( #249, #206, #166 ) ;
#45 = CARTESIAN_POINT ( 'NONE',  ( 2.618611004132327928E-15, -9.184850993605073249E-17, 0.7499999999999936717 ) ) ;
#46 = CARTESIAN_POINT ( 'NONE',  ( 1.117274028429802674E-13, 4.499279347985459926E-33, 32.00000000000000000 ) ) ;
#47 = PERSON_AND_ORGANIZATION ( #32, #91 ) ;
#48 = APPROVAL_PERSON_ORGANIZATION ( #24, #212, #270 ) ;
#49 = APPLICATION_PROTOCOL_DEFINITION ( 'international standard', 'config_control_design', 1994, #85 ) ;
#50 = DATE_AND_TIME ( #80, #195 ) ;
#51 = CARTESIAN_POINT ( 'NONE',  ( 1.117274028429802674E-13, -3.918869757271531052E-15, 32.00000000000000000 ) ) ;
#52 = DIRECTION ( 'NONE',  ( 5.135813185032706597E-31, 1.000000000000000000, 1.445602896647361103E-16 ) ) ;
#53 = VECTOR ( 'NONE', #282, 1000.000000000000000 ) ;
#54 = PLANE ( 'NONE',  #4 ) ;
#55 = CARTESIAN_POINT ( 'NONE',  ( 2.618611004132327534E-15, -0.7499999999999887867, 0.7499999999999935607 ) ) ;
#56 = ORIENTED_EDGE ( 'NONE', *, *, #232, .T. ) ;
#57 = ORIENTED_EDGE ( 'NONE', *, *, #216, .F. ) ;
#58 = CARTESIAN_POINT ( 'NONE',  ( 9.184850993605000526E-17, -0.7499999999999904521, -9.184850993605065854E-17 ) ) ;
#59 = LOCAL_TIME ( 9, 47, 2.000000000000000000, #20 ) ;
#60 = ORIENTED_EDGE ( 'NONE', *, *, #34, .F. ) ;
#61 = EDGE_LOOP ( 'NONE', ( #113, #262, #210, #235 ) ) ;
#62 = DIRECTION ( 'NONE',  ( -2.468850131082130054E-15, 0.7071067811865865416, -0.7071067811865086039 ) ) ;
#63 = CARTESIAN_POINT ( 'NONE',  ( 0.0000000000000000000, 0.0000000000000000000, 0.0000000000000000000 ) ) ;
#64 = ORIENTED_EDGE ( 'NONE', *, *, #14, .F. ) ;
#65 = PLANE ( 'NONE',  #67 ) ;
#66 = ADVANCED_FACE ( 'NONE', ( #283 ), #153, .T. ) ;
#67 = AXIS2_PLACEMENT_3D ( 'NONE', #46, #135, #281 ) ;
#68 = DIRECTION ( 'NONE',  ( -3.491481338843133355E-15, 1.224646799147353454E-16, -1.000000000000000000 ) ) ;
#69 = AXIS2_PLACEMENT_3D ( 'NONE', #116, #138, #184 ) ;
#70 = AXIS2_PLACEMENT_3D ( 'NONE', #137, #94, #214 ) ;
#71 = CARTESIAN_POINT ( 'NONE',  ( 0.0000000000000000000, 0.0000000000000000000, 0.0000000000000000000 ) ) ;
#72 = EDGE_CURVE ( 'NONE', #36, #111, #221, .T. ) ;
#73 = PERSON_AND_ORGANIZATION_ROLE ( 'design_owner' ) ;
#74 = APPROVAL_PERSON_ORGANIZATION ( #47, #28, #147 ) ;
#75 = CARTESIAN_POINT ( 'NONE',  ( 0.0000000000000000000, 0.0000000000000000000, 0.0000000000000000000 ) ) ;
#76 = VERTEX_POINT ( 'NONE', #156 ) ;
#77 = DIRECTION ( 'NONE',  ( 3.491481338843133355E-15, -1.224646799147353454E-16, 1.000000000000000000 ) ) ;
#78 = VERTEX_POINT ( 'NONE', #176 ) ;
#79 = CALENDAR_DATE ( 2021, 21, 9 ) ;
#80 = CALENDAR_DATE ( 2021, 21, 9 ) ;
#81 = CONICAL_SURFACE ( 'NONE', #87, 0.5999999999999924283, 0.7853981633975032350 ) ;
#82 = DIRECTION ( 'NONE',  ( -3.491481338843133355E-15, 1.224646799147353454E-16, -1.000000000000000000 ) ) ;
#83 = CARTESIAN_POINT ( 'NONE',  ( 5.700299433307908719E-14, -0.7499999999999887867, 0.7499999999999935607 ) ) ;
#84 = EDGE_CURVE ( 'NONE', #121, #10, #16, .T. ) ;
#85 = APPLICATION_CONTEXT ( 'configuration controlled 3d designs of mechanical parts and assemblies' ) ;
#86 = ORIENTED_EDGE ( 'NONE', *, *, #26, .T. ) ;
#87 = AXIS2_PLACEMENT_3D ( 'NONE', #51, #190, #276 ) ;
#88 = ORIENTED_EDGE ( 'NONE', *, *, #192, .T. ) ;
#89 = ORIENTED_EDGE ( 'NONE', *, *, #99, .T. ) ;
#90 = CARTESIAN_POINT ( 'NONE',  ( 2.618611004132327928E-15, -9.184850993605073249E-17, 0.7499999999999936717 ) ) ;
#91 = ORGANIZATION ( 'UNSPECIFIED', 'UNSPECIFIED', '' ) ;
#92 = DIRECTION ( 'NONE',  ( 5.135813185032706597E-31, 1.000000000000000000, 1.445602896647361103E-16 ) ) ;
#93 = ADVANCED_FACE ( 'NONE', ( #43 ), #267, .T. ) ;
#94 = DIRECTION ( 'NONE',  ( 3.491481338843133355E-15, -1.224646799147353454E-16, 1.000000000000000000 ) ) ;
#95 = DIRECTION ( 'NONE',  ( 0.0000000000000000000, 1.000000000000000000, 0.0000000000000000000 ) ) ;
#96 = DATE_AND_TIME ( #2, #59 ) ;
#97 = CIRCLE ( 'NONE', #69, 0.7499999999999886757 ) ;
#98 = DIRECTION ( 'NONE',  ( 3.491481338843133355E-15, -1.224646799147353454E-16, 1.000000000000000000 ) ) ;
#99 = EDGE_CURVE ( 'NONE', #10, #111, #239, .T. ) ;
#100 = UNCERTAINTY_MEASURE_WITH_UNIT (LENGTH_MEASURE( 1.000000000000000082E-05 ), #205, 'distance_accuracy_value', 'NONE');
#101 = PERSON_AND_ORGANIZATION ( #32, #91 ) ;
#102 = APPROVAL_STATUS ( 'not_yet_approved' ) ;
#103 = APPROVAL_DATE_TIME ( #3, #28 ) ;
#104 = CARTESIAN_POINT ( 'NONE',  ( 2.618611004132327928E-15, -9.184850993605073249E-17, 0.7499999999999936717 ) ) ;
#105 = LINE ( 'NONE', #58, #238 ) ;
#106 = PERSON_AND_ORGANIZATION ( #32, #91 ) ;
#107 = EDGE_LOOP ( 'NONE', ( #129, #148 ) ) ;
#108 = ORIENTED_EDGE ( 'NONE', *, *, #275, .F. ) ;
#109 = ORIENTED_EDGE ( 'NONE', *, *, #241, .T. ) ;
#110 = CIRCLE ( 'NONE', #39, 0.7499999999999886757 ) ;
#111 = VERTEX_POINT ( 'NONE', #263 ) ;
#112 = EDGE_LOOP ( 'NONE', ( #86, #277 ) ) ;
#113 = ORIENTED_EDGE ( 'NONE', *, *, #187, .T. ) ;
#114 = VERTEX_POINT ( 'NONE', #217 ) ;
#115 = CARTESIAN_POINT ( 'NONE',  ( 2.710459514068378106E-15, 0.7499999999999885647, 0.7499999999999937828 ) ) ;
#116 = CARTESIAN_POINT ( 'NONE',  ( 2.618611004132327928E-15, -9.184850993605073249E-17, 0.7499999999999936717 ) ) ;
#117 = CARTESIAN_POINT ( 'NONE',  ( 3.206873584422679105E-31, 0.7499999999999904521, 9.184850993605035039E-17 ) ) ;
#118 = EDGE_CURVE ( 'NONE', #10, #114, #143, .T. ) ;
#119 = FACE_OUTER_BOUND ( 'NONE', #233, .T. ) ;
#120 = DIRECTION ( 'NONE',  ( -3.491481338843133355E-15, 1.224646799147353454E-16, -1.000000000000000000 ) ) ;
#121 = VERTEX_POINT ( 'NONE', #259 ) ;
#122 = APPLICATION_PROTOCOL_DEFINITION ( 'international standard', 'config_control_design', 1994, #269 ) ;
#123 = AXIS2_PLACEMENT_3D ( 'NONE', #75, #255, #209 ) ;
#124 = DIRECTION ( 'NONE',  ( 2.468850131082273232E-15, -0.7071067811865452413, 0.7071067811865497932 ) ) ;
#125 = DATE_AND_TIME ( #272, #23 ) ;
#126 = PRODUCT_DEFINITION_SHAPE ( 'NONE', 'NONE',  #151 ) ;
#127 = EDGE_CURVE ( 'NONE', #76, #121, #253, .T. ) ;
#128 = FACE_OUTER_BOUND ( 'NONE', #170, .T. ) ;
#129 = ORIENTED_EDGE ( 'NONE', *, *, #187, .F. ) ;
#130 = DIRECTION ( 'NONE',  ( -3.491481338843133355E-15, 1.224646799147353454E-16, -1.000000000000000000 ) ) ;
#131 = CC_DESIGN_PERSON_AND_ORGANIZATION_ASSIGNMENT ( #224, #5, ( #163 ) ) ;
#132 = AXIS2_PLACEMENT_3D ( 'NONE', #134, #19, #22 ) ;
#133 = VECTOR ( 'NONE', #198, 1000.000000000000000 ) ;
#134 = CARTESIAN_POINT ( 'NONE',  ( 1.117274028429802674E-13, -3.918869757271531052E-15, 32.00000000000000000 ) ) ;
#135 = DIRECTION ( 'NONE',  ( -3.491481338843133355E-15, 1.224646799147353454E-16, -1.000000000000000000 ) ) ;
#136 = CIRCLE ( 'NONE', #178, 0.7499999999999924505 ) ;
#137 = CARTESIAN_POINT ( 'NONE',  ( 2.618611004132327928E-15, -9.184850993605073249E-17, 0.7499999999999936717 ) ) ;
#138 = DIRECTION ( 'NONE',  ( -3.491481338843133355E-15, 1.224646799147353454E-16, -1.000000000000000000 ) ) ;
#139 = COORDINATED_UNIVERSAL_TIME_OFFSET ( 1, 0, .AHEAD. ) ;
#140 = APPROVAL_DATE_TIME ( #50, #206 ) ;
#141 = CARTESIAN_POINT ( 'NONE',  ( 1.112036806421538699E-13, 0.7499999999999885647, 31.85000000000001563 ) ) ;
#142 =( NAMED_UNIT ( * ) SI_UNIT ( $, .STERADIAN. ) SOLID_ANGLE_UNIT ( ) );
#143 = CIRCLE ( 'NONE', #228, 0.7499999999999924505 ) ;
#144 = CC_DESIGN_APPROVAL ( #212, ( #17 ) ) ;
#145 = AXIS2_PLACEMENT_3D ( 'NONE', #213, #225, #27 ) ;
#146 = ADVANCED_FACE ( 'NONE', ( #200 ), #11, .T. ) ;
#147 = APPROVAL_ROLE ( '' ) ;
#148 = ORIENTED_EDGE ( 'NONE', *, *, #127, .F. ) ;
#149 = ORIENTED_EDGE ( 'NONE', *, *, #99, .F. ) ;
#150 = VERTEX_POINT ( 'NONE', #161 ) ;
#151 = PRODUCT_DEFINITION ( 'UNKNOWN', '', #163, #218 ) ;
#152 = CC_DESIGN_APPROVAL ( #28, ( #151 ) ) ;
#153 = CYLINDRICAL_SURFACE ( 'NONE', #244, 0.7499999999999904521 ) ;
#154 = ADVANCED_BREP_SHAPE_REPRESENTATION ( '953779', ( #41, #234, #123 ), #174 ) ;
#155 = DIRECTION ( 'NONE',  ( -3.491481338843133355E-15, 1.224646799147353454E-16, -1.000000000000000000 ) ) ;
#156 = CARTESIAN_POINT ( 'NONE',  ( 1.115482054015095294E-13, -0.5999999999999963141, 32.00000000000000000 ) ) ;
#157 = CC_DESIGN_PERSON_AND_ORGANIZATION_ASSIGNMENT ( #101, #252, ( #163 ) ) ;
#158 = AXIS2_PLACEMENT_3D ( 'NONE', #211, #130, #13 ) ;
#159 = LINE ( 'NONE', #268, #53 ) ;
#160 = CLOSED_SHELL ( 'NONE', ( #9, #66, #271, #257, #146, #37 ) ) ;
#161 = CARTESIAN_POINT ( 'NONE',  ( 2.618611004132327534E-15, -0.7499999999999887867, 0.7499999999999935607 ) ) ;
#162 = COORDINATED_UNIVERSAL_TIME_OFFSET ( 1, 0, .AHEAD. ) ;
#163 = PRODUCT_DEFINITION_FORMATION_WITH_SPECIFIED_SOURCE ( 'ANY', '', #35, .NOT_KNOWN. ) ;
#164 = APPROVAL_STATUS ( 'not_yet_approved' ) ;
#165 =( NAMED_UNIT ( * ) PLANE_ANGLE_UNIT ( ) SI_UNIT ( $, .RADIAN. ) );
#166 = APPROVAL_ROLE ( '' ) ;
#167 = APPROVAL_DATE_TIME ( #278, #212 ) ;
#168 = SECURITY_CLASSIFICATION_LEVEL ( 'unclassified' ) ;
#169 = CONICAL_SURFACE ( 'NONE', #38, 0.7499999999999886757, 0.7853981633974449483 ) ;
#170 = EDGE_LOOP ( 'NONE', ( #108, #8 ) ) ;
#171 = FACE_OUTER_BOUND ( 'NONE', #107, .T. ) ;
#172 = SHAPE_DEFINITION_REPRESENTATION ( #126, #154 ) ;
#173 = EDGE_LOOP ( 'NONE', ( #237, #280, #236, #149 ) ) ;
#174 =( GEOMETRIC_REPRESENTATION_CONTEXT ( 3 ) GLOBAL_UNCERTAINTY_ASSIGNED_CONTEXT ( ( #100 ) ) GLOBAL_UNIT_ASSIGNED_CONTEXT ( ( #205, #165, #142 ) ) REPRESENTATION_CONTEXT ( 'NONE', 'WORKASPACE' ) );
#175 = EDGE_LOOP ( 'NONE', ( #60, #88, #56 ) ) ;
#176 = CARTESIAN_POINT ( 'NONE',  ( 2.710459514068378106E-15, 0.7499999999999885647, 0.7499999999999937828 ) ) ;
#177 = ORIENTED_EDGE ( 'NONE', *, *, #84, .T. ) ;
#178 = AXIS2_PLACEMENT_3D ( 'NONE', #181, #155, #21 ) ;
#179 = DIRECTION ( 'NONE',  ( -5.135813185032706597E-31, -1.000000000000000000, -1.445602896647361103E-16 ) ) ;
#180 = CC_DESIGN_DATE_AND_TIME_ASSIGNMENT ( #125, #274, ( #151 ) ) ;
#181 = CARTESIAN_POINT ( 'NONE',  ( 1.112036806421538699E-13, -3.900500055284322988E-15, 31.85000000000001563 ) ) ;
#182 = DIRECTION ( 'NONE',  ( -3.491481338843133355E-15, 1.224646799147353454E-16, -1.000000000000000000 ) ) ;
#183 = CIRCLE ( 'NONE', #12, 0.5999999999999924283 ) ;
#184 = DIRECTION ( 'NONE',  ( 5.135813185032706597E-31, 1.000000000000000000, 1.445602896647361103E-16 ) ) ;
#185 = AXIS2_PLACEMENT_3D ( 'NONE', #284, #199, #95 ) ;
#186 = PERSON_AND_ORGANIZATION_ROLE ( 'classification_officer' ) ;
#187 = EDGE_CURVE ( 'NONE', #121, #76, #183, .T. ) ;
#188 = COORDINATED_UNIVERSAL_TIME_OFFSET ( 1, 0, .AHEAD. ) ;
#189 = MECHANICAL_CONTEXT ( 'NONE', #269, 'mechanical' ) ;
#190 = DIRECTION ( 'NONE',  ( -3.491481338843133355E-15, 1.224646799147353454E-16, -1.000000000000000000 ) ) ;
#191 = ORIENTED_EDGE ( 'NONE', *, *, #241, .F. ) ;
#192 = EDGE_CURVE ( 'NONE', #229, #78, #15, .T. ) ;
#193 = ORIENTED_EDGE ( 'NONE', *, *, #72, .F. ) ;
#194 = VECTOR ( 'NONE', #124, 1000.000000000000000 ) ;
#195 = LOCAL_TIME ( 9, 47, 2.000000000000000000, #250 ) ;
#196 = CIRCLE ( 'NONE', #158, 0.7499999999999886757 ) ;
#197 = LINE ( 'NONE', #55, #194 ) ;
#198 = DIRECTION ( 'NONE',  ( 2.555445736705823078E-15, 0.7071067811865450192, 0.7071067811865500152 ) ) ;
#199 = DIRECTION ( 'NONE',  ( -3.491481338843133355E-15, 1.224646799147353454E-16, -1.000000000000000000 ) ) ;
#200 = FACE_OUTER_BOUND ( 'NONE', #279, .T. ) ;
#201 = CYLINDRICAL_SURFACE ( 'NONE', #227, 0.7499999999999904521 ) ;
#202 = LOCAL_TIME ( 9, 47, 2.000000000000000000, #139 ) ;
#203 = CC_DESIGN_PERSON_AND_ORGANIZATION_ASSIGNMENT ( #106, #222, ( #151 ) ) ;
#204 = DIRECTION ( 'NONE',  ( -4.275831445896959482E-31, -1.000000000000000000, -1.224646799147353454E-16 ) ) ;
#205 =( LENGTH_UNIT ( ) NAMED_UNIT ( * ) SI_UNIT ( .MILLI., .METRE. ) );
#206 = APPROVAL ( #208, 'UNSPECIFIED' ) ;
#207 = CC_DESIGN_SECURITY_CLASSIFICATION ( #17, ( #163 ) ) ;
#208 = APPROVAL_STATUS ( 'not_yet_approved' ) ;
#209 = DIRECTION ( 'NONE',  ( 1.000000000000000000, 0.0000000000000000000, 0.0000000000000000000 ) ) ;
#210 = ORIENTED_EDGE ( 'NONE', *, *, #118, .F. ) ;
#211 = CARTESIAN_POINT ( 'NONE',  ( 2.618611004132327928E-15, -9.184850993605073249E-17, 0.7499999999999936717 ) ) ;
#212 = APPROVAL ( #102, 'UNSPECIFIED' ) ;
#213 = CARTESIAN_POINT ( 'NONE',  ( 2.618611004132349228E-15, 7.491723424762505289E-31, 0.7499999999999997780 ) ) ;
#214 = DIRECTION ( 'NONE',  ( -5.135813185032706597E-31, -1.000000000000000000, -1.445602896647361103E-16 ) ) ;
#215 = DIRECTION ( 'NONE',  ( 4.275831445896959482E-31, 1.000000000000000000, 1.224646799147353700E-16 ) ) ;
#216 = EDGE_CURVE ( 'NONE', #76, #114, #159, .T. ) ;
#217 = CARTESIAN_POINT ( 'NONE',  ( 5.700299433307885999E-14, -0.7499999999999962252, 31.85000000000001563 ) ) ;
#218 = DESIGN_CONTEXT ( 'detailed design', #85, 'design' ) ;
#219 = CARTESIAN_POINT ( 'NONE',  ( 1.112036806421538699E-13, -3.900500055284322988E-15, 31.85000000000001563 ) ) ;
#220 = DIRECTION ( 'NONE',  ( 0.0000000000000000000, 1.000000000000000000, 0.0000000000000000000 ) ) ;
#221 = CIRCLE ( 'NONE', #226, 0.7499999999999886757 ) ;
#222 = PERSON_AND_ORGANIZATION_ROLE ( 'creator' ) ;
#223 = ADVANCED_FACE ( 'NONE', ( #240 ), #169, .T. ) ;
#224 = PERSON_AND_ORGANIZATION ( #32, #91 ) ;
#225 = DIRECTION ( 'NONE',  ( 3.491481338843133355E-15, -1.224646799147353454E-16, 1.000000000000000000 ) ) ;
#226 = AXIS2_PLACEMENT_3D ( 'NONE', #90, #68, #92 ) ;
#227 = AXIS2_PLACEMENT_3D ( 'NONE', #71, #42, #215 ) ;
#228 = AXIS2_PLACEMENT_3D ( 'NONE', #219, #261, #220 ) ;
#229 = VERTEX_POINT ( 'NONE', #63 ) ;
#230 = PERSON_AND_ORGANIZATION ( #32, #91 ) ;
#231 = FACE_OUTER_BOUND ( 'NONE', #61, .T. ) ;
#232 = EDGE_CURVE ( 'NONE', #78, #150, #97, .T. ) ;
#233 = EDGE_LOOP ( 'NONE', ( #64, #109, #89, #193 ) ) ;
#234 = MANIFOLD_SOLID_BREP ( 'Corps-Déplacer/Copier1[2]', #243 ) ;
#235 = ORIENTED_EDGE ( 'NONE', *, *, #84, .F. ) ;
#236 = ORIENTED_EDGE ( 'NONE', *, *, #26, .F. ) ;
#237 = ORIENTED_EDGE ( 'NONE', *, *, #118, .T. ) ;
#238 = VECTOR ( 'NONE', #82, 1000.000000000000000 ) ;
#239 = LINE ( 'NONE', #117, #266 ) ;
#240 = FACE_OUTER_BOUND ( 'NONE', #30, .T. ) ;
#241 = EDGE_CURVE ( 'NONE', #114, #10, #136, .T. ) ;
#242 = CARTESIAN_POINT ( 'NONE',  ( 1.117274028429802674E-13, 0.5999999999999885425, 32.00000000000000000 ) ) ;
#243 = CLOSED_SHELL ( 'NONE', ( #93, #223, #18 ) ) ;
#244 = AXIS2_PLACEMENT_3D ( 'NONE', #246, #182, #285 ) ;
#245 = DIRECTION ( 'NONE',  ( -3.491481338843133355E-15, 1.224646799147353454E-16, -1.000000000000000000 ) ) ;
#246 = CARTESIAN_POINT ( 'NONE',  ( 0.0000000000000000000, 0.0000000000000000000, 0.0000000000000000000 ) ) ;
#247 = DATE_TIME_ROLE ( 'classification_date' ) ;
#248 = CALENDAR_DATE ( 2021, 21, 9 ) ;
#249 = PERSON_AND_ORGANIZATION ( #32, #91 ) ;
#250 = COORDINATED_UNIVERSAL_TIME_OFFSET ( 1, 0, .AHEAD. ) ;
#251 = CC_DESIGN_PERSON_AND_ORGANIZATION_ASSIGNMENT ( #287, #73, ( #35 ) ) ;
#252 = PERSON_AND_ORGANIZATION_ROLE ( 'design_supplier' ) ;
#253 = CIRCLE ( 'NONE', #132, 0.5999999999999924283 ) ;
#254 = LOCAL_TIME ( 9, 47, 2.000000000000000000, #162 ) ;
#255 = DIRECTION ( 'NONE',  ( 0.0000000000000000000, 0.0000000000000000000, 1.000000000000000000 ) ) ;
#256 = PLANE ( 'NONE',  #145 ) ;
#257 = ADVANCED_FACE ( 'NONE', ( #119 ), #201, .T. ) ;
#258 = ORIENTED_EDGE ( 'NONE', *, *, #34, .T. ) ;
#259 = CARTESIAN_POINT ( 'NONE',  ( 1.117274028429802674E-13, 0.5999999999999885425, 32.00000000000000000 ) ) ;
#260 = CC_DESIGN_DATE_AND_TIME_ASSIGNMENT ( #96, #247, ( #17 ) ) ;
#261 = DIRECTION ( 'NONE',  ( -3.491481338843133355E-15, 1.224646799147353454E-16, -1.000000000000000000 ) ) ;
#262 = ORIENTED_EDGE ( 'NONE', *, *, #216, .T. ) ;
#263 = CARTESIAN_POINT ( 'NONE',  ( 2.618611004132328323E-15, 0.7499999999999885647, 0.7499999999999937828 ) ) ;
#264 = CARTESIAN_POINT ( 'NONE',  ( 1.117274028429802674E-13, -3.918869757271531052E-15, 32.00000000000000000 ) ) ;
#265 = CC_DESIGN_PERSON_AND_ORGANIZATION_ASSIGNMENT ( #230, #186, ( #17 ) ) ;
#266 = VECTOR ( 'NONE', #120, 1000.000000000000000 ) ;
#267 = CONICAL_SURFACE ( 'NONE', #70, 0.7499999999999886757, 0.7853981633974449483 ) ;
#268 = CARTESIAN_POINT ( 'NONE',  ( 1.118008816509291186E-13, -0.5999999999999963141, 32.00000000000000000 ) ) ;
#269 = APPLICATION_CONTEXT ( 'configuration controlled 3d designs of mechanical parts and assemblies' ) ;
#270 = APPROVAL_ROLE ( '' ) ;
#271 = ADVANCED_FACE ( 'NONE', ( #1 ), #54, .F. ) ;
#272 = CALENDAR_DATE ( 2021, 21, 9 ) ;
#273 = ORIENTED_EDGE ( 'NONE', *, *, #275, .T. ) ;
#274 = DATE_TIME_ROLE ( 'creation_date' ) ;
#275 = EDGE_CURVE ( 'NONE', #150, #78, #110, .T. ) ;
#276 = DIRECTION ( 'NONE',  ( 0.0000000000000000000, 1.000000000000000000, 0.0000000000000000000 ) ) ;
#277 = ORIENTED_EDGE ( 'NONE', *, *, #72, .T. ) ;
#278 = DATE_AND_TIME ( #79, #202 ) ;
#279 = EDGE_LOOP ( 'NONE', ( #57, #31, #177, #191 ) ) ;
#280 = ORIENTED_EDGE ( 'NONE', *, *, #14, .T. ) ;
#281 = DIRECTION ( 'NONE',  ( 4.275831445896959482E-31, 1.000000000000000000, 1.224646799147353454E-16 ) ) ;
#282 = DIRECTION ( 'NONE',  ( -2.382254525458576263E-15, -0.7071067811865862085, -0.7071067811865088260 ) ) ;
#283 = FACE_OUTER_BOUND ( 'NONE', #173, .T. ) ;
#284 = CARTESIAN_POINT ( 'NONE',  ( 1.117274028429802674E-13, -3.918869757271531052E-15, 32.00000000000000000 ) ) ;
#285 = DIRECTION ( 'NONE',  ( 4.275831445896959482E-31, 1.000000000000000000, 1.224646799147353700E-16 ) ) ;
#286 = CC_DESIGN_APPROVAL ( #206, ( #163 ) ) ;
#287 = PERSON_AND_ORGANIZATION ( #32, #91 ) ;
ENDSEC;
END-ISO-10303-21;
