ISO-10303-21;
HEADER;
FILE_DESCRIPTION (( 'STEP AP203' ),
    '1' );
FILE_NAME ('953778.step',
    '2021-09-21T07:38:00',
    ( '' ),
    ( '' ),
    'SwSTEP 2.0',
    'SolidWorks 2019',
    '' );
FILE_SCHEMA (( 'CONFIG_CONTROL_DESIGN' ));
ENDSEC;

DATA;
#1 = ORIENTED_EDGE ( 'NONE', *, *, #211, .F. ) ;
#2 = MECHANICAL_CONTEXT ( 'NONE', #42, 'mechanical' ) ;
#3 = COORDINATED_UNIVERSAL_TIME_OFFSET ( 1, 0, .AHEAD. ) ;
#4 =( NAMED_UNIT ( * ) SI_UNIT ( $, .STERADIAN. ) SOLID_ANGLE_UNIT ( ) );
#5 = ORIENTED_EDGE ( 'NONE', *, *, #211, .T. ) ;
#6 = DIRECTION ( 'NONE',  ( -3.491481338843133355E-15, 1.224646799147353454E-16, -1.000000000000000000 ) ) ;
#7 = CONICAL_SURFACE ( 'NONE', #44, 0.5999999999999980904, 0.7853981633974562726 ) ;
#8 = EDGE_CURVE ( 'NONE', #234, #284, #77, .T. ) ;
#9 = DIRECTION ( 'NONE',  ( 0.0000000000000000000, 1.000000000000000000, 0.0000000000000000000 ) ) ;
#10 = DIRECTION ( 'NONE',  ( -4.275831445896959482E-31, -1.000000000000000000, -1.224646799147353454E-16 ) ) ;
#11 = ORIENTED_EDGE ( 'NONE', *, *, #274, .T. ) ;
#12 = EDGE_CURVE ( 'NONE', #284, #234, #39, .T. ) ;
#13 = AXIS2_PLACEMENT_3D ( 'NONE', #258, #165, #59 ) ;
#14 = ORIENTED_EDGE ( 'NONE', *, *, #12, .T. ) ;
#15 = DIRECTION ( 'NONE',  ( -2.382254525458696565E-15, -0.7071067811865531239, -0.7071067811865420216 ) ) ;
#16 = CARTESIAN_POINT ( 'NONE',  ( 1.117274028429802674E-13, -3.918869757271531052E-15, 32.00000000000000000 ) ) ;
#17 = EDGE_CURVE ( 'NONE', #231, #123, #82, .T. ) ;
#18 = LOCAL_TIME ( 9, 38, 0.0000000000000000000, #227 ) ;
#19 = AXIS2_PLACEMENT_3D ( 'NONE', #217, #110, #34 ) ;
#20 = VECTOR ( 'NONE', #220, 1000.000000000000000 ) ;
#21 = CARTESIAN_POINT ( 'NONE',  ( 2.618611004132365005E-15, -0.7499999999999963363, 0.7500000000000043299 ) ) ;
#22 = PERSON_AND_ORGANIZATION ( #189, #232 ) ;
#23 = CIRCLE ( 'NONE', #148, 0.7499999999999962252 ) ;
#24 = ORIENTED_EDGE ( 'NONE', *, *, #71, .F. ) ;
#25 = APPROVAL_DATE_TIME ( #49, #81 ) ;
#26 = VERTEX_POINT ( 'NONE', #186 ) ;
#27 = COORDINATED_UNIVERSAL_TIME_OFFSET ( 1, 0, .AHEAD. ) ;
#28 = CARTESIAN_POINT ( 'NONE',  ( 1.117274028429802674E-13, 0.5999999999999942046, 32.00000000000000000 ) ) ;
#29 = CIRCLE ( 'NONE', #92, 0.7499999999999962252 ) ;
#30 = ORIENTED_EDGE ( 'NONE', *, *, #64, .F. ) ;
#31 = ADVANCED_BREP_SHAPE_REPRESENTATION ( '953778', ( #154, #60, #72 ), #248 ) ;
#32 = ORIENTED_EDGE ( 'NONE', *, *, #206, .T. ) ;
#33 = ORIENTED_EDGE ( 'NONE', *, *, #8, .F. ) ;
#34 = DIRECTION ( 'NONE',  ( -5.135813185032654924E-31, -1.000000000000000000, -1.445602896647346559E-16 ) ) ;
#35 = AXIS2_PLACEMENT_3D ( 'NONE', #241, #87, #66 ) ;
#36 = PRODUCT_DEFINITION_FORMATION_WITH_SPECIFIED_SOURCE ( 'ANY', '', #129, .NOT_KNOWN. ) ;
#37 = ADVANCED_FACE ( 'NONE', ( #273 ), #79, .T. ) ;
#38 = CARTESIAN_POINT ( 'NONE',  ( 2.618611004132365399E-15, -9.184850993605205137E-17, 0.7500000000000044409 ) ) ;
#39 = CIRCLE ( 'NONE', #152, 0.7499999999999978906 ) ;
#40 = DIRECTION ( 'NONE',  ( -3.491481338843133355E-15, 1.224646799147353454E-16, -1.000000000000000000 ) ) ;
#41 = PRODUCT_DEFINITION ( 'UNKNOWN', '', #36, #143 ) ;
#42 = APPLICATION_CONTEXT ( 'configuration controlled 3d designs of mechanical parts and assemblies' ) ;
#43 = LINE ( 'NONE', #28, #20 ) ;
#44 = AXIS2_PLACEMENT_3D ( 'NONE', #16, #171, #261 ) ;
#45 = CALENDAR_DATE ( 2021, 21, 9 ) ;
#46 = AXIS2_PLACEMENT_3D ( 'NONE', #159, #249, #199 ) ;
#47 = LINE ( 'NONE', #21, #169 ) ;
#48 = APPROVAL_STATUS ( 'not_yet_approved' ) ;
#49 = DATE_AND_TIME ( #201, #18 ) ;
#50 = PERSON_AND_ORGANIZATION ( #189, #232 ) ;
#51 = VERTEX_POINT ( 'NONE', #275 ) ;
#52 = ADVANCED_FACE ( 'NONE', ( #80 ), #168, .T. ) ;
#53 = PERSON_AND_ORGANIZATION ( #189, #232 ) ;
#54 = LINE ( 'NONE', #115, #193 ) ;
#55 = CARTESIAN_POINT ( 'NONE',  ( 1.112036806421538195E-13, -3.900500055284321411E-15, 31.85000000000000497 ) ) ;
#56 = DIRECTION ( 'NONE',  ( 5.135813185032654924E-31, 1.000000000000000000, 1.445602896647346559E-16 ) ) ;
#57 = CARTESIAN_POINT ( 'NONE',  ( 2.618611004132372105E-15, -2.168404344971029576E-16, 0.7500000000000063283 ) ) ;
#58 = CIRCLE ( 'NONE', #137, 0.7499999999999962252 ) ;
#59 = DIRECTION ( 'NONE',  ( 0.0000000000000000000, 1.000000000000000000, 0.0000000000000000000 ) ) ;
#60 = MANIFOLD_SOLID_BREP ( 'Corps-Déplacer/Copier1[2]', #219 ) ;
#61 = CARTESIAN_POINT ( 'NONE',  ( 2.710459514068416760E-15, 0.7499999999999961142, 0.7500000000000045519 ) ) ;
#62 = FACE_OUTER_BOUND ( 'NONE', #102, .T. ) ;
#63 = APPROVAL_PERSON_ORGANIZATION ( #271, #202, #200 ) ;
#64 = EDGE_CURVE ( 'NONE', #123, #284, #85, .T. ) ;
#65 = DIRECTION ( 'NONE',  ( 2.555445736705828206E-15, 0.7071067811865435759, 0.7071067811865515695 ) ) ;
#66 = DIRECTION ( 'NONE',  ( 4.275831445896959482E-31, 1.000000000000000000, 1.224646799147353454E-16 ) ) ;
#67 = PERSON_AND_ORGANIZATION_ROLE ( 'design_owner' ) ;
#68 = FACE_OUTER_BOUND ( 'NONE', #140, .T. ) ;
#69 = VERTEX_POINT ( 'NONE', #61 ) ;
#70 = DATE_AND_TIME ( #73, #256 ) ;
#71 = EDGE_CURVE ( 'NONE', #123, #231, #94, .T. ) ;
#72 = AXIS2_PLACEMENT_3D ( 'NONE', #179, #98, #285 ) ;
#73 = CALENDAR_DATE ( 2021, 21, 9 ) ;
#74 = PERSON_AND_ORGANIZATION_ROLE ( 'creator' ) ;
#75 = EDGE_CURVE ( 'NONE', #276, #69, #131, .T. ) ;
#76 = APPROVAL_DATE_TIME ( #222, #277 ) ;
#77 = CIRCLE ( 'NONE', #13, 0.7499999999999978906 ) ;
#78 = ORIENTED_EDGE ( 'NONE', *, *, #194, .F. ) ;
#79 = PLANE ( 'NONE',  #177 ) ;
#80 = FACE_OUTER_BOUND ( 'NONE', #124, .T. ) ;
#81 = APPROVAL ( #250, 'UNSPECIFIED' ) ;
#82 = CIRCLE ( 'NONE', #209, 0.5999999999999980904 ) ;
#83 = ORIENTED_EDGE ( 'NONE', *, *, #286, .F. ) ;
#84 = CARTESIAN_POINT ( 'NONE',  ( 2.618611004132365399E-15, -9.184850993605205137E-17, 0.7500000000000044409 ) ) ;
#85 = LINE ( 'NONE', #242, #147 ) ;
#86 = ADVANCED_FACE ( 'NONE', ( #62 ), #111, .T. ) ;
#87 = DIRECTION ( 'NONE',  ( -3.491481338843133355E-15, 1.224646799147353454E-16, -1.000000000000000000 ) ) ;
#88 = FACE_OUTER_BOUND ( 'NONE', #188, .T. ) ;
#89 = DIRECTION ( 'NONE',  ( 5.135813185032654924E-31, 1.000000000000000000, 1.445602896647346559E-16 ) ) ;
#90 = CARTESIAN_POINT ( 'NONE',  ( 1.112036806421538195E-13, 0.7499999999999938938, 31.85000000000000497 ) ) ;
#91 = AXIS2_PLACEMENT_3D ( 'NONE', #281, #40, #262 ) ;
#92 = AXIS2_PLACEMENT_3D ( 'NONE', #38, #127, #150 ) ;
#93 = PERSON_AND_ORGANIZATION_ROLE ( 'classification_officer' ) ;
#94 = CIRCLE ( 'NONE', #91, 0.5999999999999980904 ) ;
#95 = APPLICATION_PROTOCOL_DEFINITION ( 'international standard', 'config_control_design', 1994, #42 ) ;
#96 = ORIENTED_EDGE ( 'NONE', *, *, #75, .T. ) ;
#97 = CC_DESIGN_PERSON_AND_ORGANIZATION_ASSIGNMENT ( #270, #67, ( #129 ) ) ;
#98 = DIRECTION ( 'NONE',  ( 0.0000000000000000000, 0.0000000000000000000, 1.000000000000000000 ) ) ;
#99 = VECTOR ( 'NONE', #280, 1000.000000000000000 ) ;
#100 =( LENGTH_UNIT ( ) NAMED_UNIT ( * ) SI_UNIT ( .MILLI., .METRE. ) );
#101 = ORIENTED_EDGE ( 'NONE', *, *, #206, .F. ) ;
#102 = EDGE_LOOP ( 'NONE', ( #125, #96, #32 ) ) ;
#103 = ORIENTED_EDGE ( 'NONE', *, *, #17, .T. ) ;
#104 = VERTEX_POINT ( 'NONE', #279 ) ;
#105 = ADVANCED_FACE ( 'NONE', ( #195 ), #225, .T. ) ;
#106 = CARTESIAN_POINT ( 'NONE',  ( 3.206873584422706694E-31, 0.7499999999999970024, 9.184850993605113925E-17 ) ) ;
#107 = DIRECTION ( 'NONE',  ( -5.135813185032654924E-31, -1.000000000000000000, -1.445602896647346559E-16 ) ) ;
#108 = APPROVAL_PERSON_ORGANIZATION ( #224, #277, #198 ) ;
#109 = FACE_OUTER_BOUND ( 'NONE', #228, .T. ) ;
#110 = DIRECTION ( 'NONE',  ( 3.491481338843133355E-15, -1.224646799147353454E-16, 1.000000000000000000 ) ) ;
#111 = CONICAL_SURFACE ( 'NONE', #19, 0.7499999999999962252, 0.7853981633974428389 ) ;
#112 = AXIS2_PLACEMENT_3D ( 'NONE', #239, #128, #213 ) ;
#113 = EDGE_CURVE ( 'NONE', #26, #104, #58, .T. ) ;
#114 = COORDINATED_UNIVERSAL_TIME_OFFSET ( 1, 0, .AHEAD. ) ;
#115 = CARTESIAN_POINT ( 'NONE',  ( 9.184850993605080645E-17, -0.7499999999999970024, -9.184850993605145972E-17 ) ) ;
#116 = DATE_TIME_ROLE ( 'classification_date' ) ;
#117 = APPROVAL_PERSON_ORGANIZATION ( #50, #81, #251 ) ;
#118 = EDGE_CURVE ( 'NONE', #234, #26, #210, .T. ) ;
#119 = PERSON_AND_ORGANIZATION_ROLE ( 'creator' ) ;
#120 = SHAPE_DEFINITION_REPRESENTATION ( #166, #31 ) ;
#121 = ORIENTED_EDGE ( 'NONE', *, *, #64, .T. ) ;
#122 = ORIENTED_EDGE ( 'NONE', *, *, #75, .F. ) ;
#123 = VERTEX_POINT ( 'NONE', #174 ) ;
#124 = EDGE_LOOP ( 'NONE', ( #278, #255, #207, #266 ) ) ;
#125 = ORIENTED_EDGE ( 'NONE', *, *, #274, .F. ) ;
#126 = CARTESIAN_POINT ( 'NONE',  ( 2.618611004132365399E-15, -9.184850993605205137E-17, 0.7500000000000044409 ) ) ;
#127 = DIRECTION ( 'NONE',  ( -3.491481338843133355E-15, 1.224646799147353454E-16, -1.000000000000000000 ) ) ;
#128 = DIRECTION ( 'NONE',  ( -3.491481338843133355E-15, 1.224646799147353454E-16, -1.000000000000000000 ) ) ;
#129 = PRODUCT ( '953778', '953778', '', ( #2 ) ) ;
#130 = CC_DESIGN_PERSON_AND_ORGANIZATION_ASSIGNMENT ( #223, #162, ( #36 ) ) ;
#131 = LINE ( 'NONE', #283, #254 ) ;
#132 = DIRECTION ( 'NONE',  ( -3.491481338843133355E-15, 1.224646799147353454E-16, -1.000000000000000000 ) ) ;
#133 = ADVANCED_FACE ( 'NONE', ( #109 ), #7, .T. ) ;
#134 = AXIS2_PLACEMENT_3D ( 'NONE', #263, #149, #238 ) ;
#135 = DATE_TIME_ROLE ( 'creation_date' ) ;
#136 = CC_DESIGN_APPROVAL ( #81, ( #264 ) ) ;
#137 = AXIS2_PLACEMENT_3D ( 'NONE', #84, #216, #89 ) ;
#138 = SECURITY_CLASSIFICATION_LEVEL ( 'unclassified' ) ;
#139 = LOCAL_TIME ( 9, 38, 0.0000000000000000000, #27 ) ;
#140 = EDGE_LOOP ( 'NONE', ( #208, #24 ) ) ;
#141 = CARTESIAN_POINT ( 'NONE',  ( 2.618611004132365399E-15, -9.184850993605205137E-17, 0.7500000000000044409 ) ) ;
#142 = ORIENTED_EDGE ( 'NONE', *, *, #173, .F. ) ;
#143 = DESIGN_CONTEXT ( 'detailed design', #240, 'design' ) ;
#144 = DIRECTION ( 'NONE',  ( 0.0000000000000000000, 1.000000000000000000, 0.0000000000000000000 ) ) ;
#145 = DIRECTION ( 'NONE',  ( -3.491481338843133355E-15, 1.224646799147353454E-16, -1.000000000000000000 ) ) ;
#146 = PRODUCT_RELATED_PRODUCT_CATEGORY ( 'detail', '', ( #129 ) ) ;
#147 = VECTOR ( 'NONE', #15, 999.9999999999998863 ) ;
#148 = AXIS2_PLACEMENT_3D ( 'NONE', #141, #157, #56 ) ;
#149 = DIRECTION ( 'NONE',  ( 3.491481338843133355E-15, -1.224646799147353454E-16, 1.000000000000000000 ) ) ;
#150 = DIRECTION ( 'NONE',  ( 5.135813185032654924E-31, 1.000000000000000000, 1.445602896647346559E-16 ) ) ;
#151 = FACE_OUTER_BOUND ( 'NONE', #183, .T. ) ;
#152 = AXIS2_PLACEMENT_3D ( 'NONE', #55, #229, #144 ) ;
#153 = CARTESIAN_POINT ( 'NONE',  ( 0.0000000000000000000, 0.0000000000000000000, 0.0000000000000000000 ) ) ;
#154 = MANIFOLD_SOLID_BREP ( 'Corps-Déplacer/Copier1[1]', #247 ) ;
#155 = CARTESIAN_POINT ( 'NONE',  ( 1.117274028429802674E-13, 4.499279347985502348E-33, 32.00000000000000000 ) ) ;
#156 = ADVANCED_FACE ( 'NONE', ( #88 ), #175, .F. ) ;
#157 = DIRECTION ( 'NONE',  ( -3.491481338843133355E-15, 1.224646799147353454E-16, -1.000000000000000000 ) ) ;
#158 = APPLICATION_PROTOCOL_DEFINITION ( 'international standard', 'config_control_design', 1994, #240 ) ;
#159 = CARTESIAN_POINT ( 'NONE',  ( 1.117274028429802674E-13, -3.918869757271531052E-15, 32.00000000000000000 ) ) ;
#160 = ORIENTED_EDGE ( 'NONE', *, *, #71, .T. ) ;
#161 = DATE_AND_TIME ( #253, #139 ) ;
#162 = PERSON_AND_ORGANIZATION_ROLE ( 'design_supplier' ) ;
#163 = EDGE_LOOP ( 'NONE', ( #122, #11, #272 ) ) ;
#164 = CALENDAR_DATE ( 2021, 21, 9 ) ;
#165 = DIRECTION ( 'NONE',  ( -3.491481338843133355E-15, 1.224646799147353454E-16, -1.000000000000000000 ) ) ;
#166 = PRODUCT_DEFINITION_SHAPE ( 'NONE', 'NONE',  #41 ) ;
#167 = ORIENTED_EDGE ( 'NONE', *, *, #194, .T. ) ;
#168 = CYLINDRICAL_SURFACE ( 'NONE', #236, 0.7499999999999970024 ) ;
#169 = VECTOR ( 'NONE', #244, 1000.000000000000000 ) ;
#170 = ORIENTED_EDGE ( 'NONE', *, *, #118, .T. ) ;
#171 = DIRECTION ( 'NONE',  ( -3.491481338843133355E-15, 1.224646799147353454E-16, -1.000000000000000000 ) ) ;
#172 = CONICAL_SURFACE ( 'NONE', #46, 0.5999999999999980904, 0.7853981633974562726 ) ;
#173 = EDGE_CURVE ( 'NONE', #51, #69, #29, .T. ) ;
#174 = CARTESIAN_POINT ( 'NONE',  ( 1.115482054015094789E-13, -0.6000000000000019762, 32.00000000000000000 ) ) ;
#175 = PLANE ( 'NONE',  #134 ) ;
#176 = CARTESIAN_POINT ( 'NONE',  ( 5.700299433307893573E-14, -0.7500000000000017764, 31.85000000000000497 ) ) ;
#177 = AXIS2_PLACEMENT_3D ( 'NONE', #57, #205, #10 ) ;
#178 = DATE_AND_TIME ( #164, #197 ) ;
#179 = CARTESIAN_POINT ( 'NONE',  ( 0.0000000000000000000, 0.0000000000000000000, 0.0000000000000000000 ) ) ;
#180 = PERSON_AND_ORGANIZATION ( #189, #232 ) ;
#181 = CARTESIAN_POINT ( 'NONE',  ( 0.0000000000000000000, 0.0000000000000000000, 0.0000000000000000000 ) ) ;
#182 = CC_DESIGN_PERSON_AND_ORGANIZATION_ASSIGNMENT ( #53, #119, ( #36 ) ) ;
#183 = EDGE_LOOP ( 'NONE', ( #83, #14, #170, #78 ) ) ;
#184 = AXIS2_PLACEMENT_3D ( 'NONE', #126, #259, #107 ) ;
#185 = AXIS2_PLACEMENT_3D ( 'NONE', #155, #132, #196 ) ;
#186 = CARTESIAN_POINT ( 'NONE',  ( 2.618611004132365794E-15, 0.7499999999999961142, 0.7500000000000045519 ) ) ;
#187 = CARTESIAN_POINT ( 'NONE',  ( 1.117274028429802674E-13, -3.918869757271531052E-15, 32.00000000000000000 ) ) ;
#188 = EDGE_LOOP ( 'NONE', ( #191, #167 ) ) ;
#189 = PERSON ( 'UNSPECIFIED', 'UNSPECIFIED', 'UNSPECIFIED', ('UNSPECIFIED'), ('UNSPECIFIED'), ('UNSPECIFIED') ) ;
#190 = CC_DESIGN_DATE_AND_TIME_ASSIGNMENT ( #161, #116, ( #264 ) ) ;
#191 = ORIENTED_EDGE ( 'NONE', *, *, #113, .T. ) ;
#192 = ADVANCED_FACE ( 'NONE', ( #151 ), #212, .T. ) ;
#193 = VECTOR ( 'NONE', #6, 1000.000000000000000 ) ;
#194 = EDGE_CURVE ( 'NONE', #104, #26, #237, .T. ) ;
#195 = FACE_OUTER_BOUND ( 'NONE', #163, .T. ) ;
#196 = DIRECTION ( 'NONE',  ( 4.275831445896959482E-31, 1.000000000000000000, 1.224646799147353454E-16 ) ) ;
#197 = LOCAL_TIME ( 9, 38, 0.0000000000000000000, #3 ) ;
#198 = APPROVAL_ROLE ( '' ) ;
#199 = DIRECTION ( 'NONE',  ( 0.0000000000000000000, 1.000000000000000000, 0.0000000000000000000 ) ) ;
#200 = APPROVAL_ROLE ( '' ) ;
#201 = CALENDAR_DATE ( 2021, 21, 9 ) ;
#202 = APPROVAL ( #48, 'UNSPECIFIED' ) ;
#203 = EDGE_LOOP ( 'NONE', ( #103, #121, #33, #1 ) ) ;
#204 = DIRECTION ( 'NONE',  ( -3.491481338843133355E-15, 1.224646799147353454E-16, -1.000000000000000000 ) ) ;
#205 = DIRECTION ( 'NONE',  ( 3.491481338843133355E-15, -1.224646799147353454E-16, 1.000000000000000000 ) ) ;
#206 = EDGE_CURVE ( 'NONE', #69, #51, #23, .T. ) ;
#207 = ORIENTED_EDGE ( 'NONE', *, *, #113, .F. ) ;
#208 = ORIENTED_EDGE ( 'NONE', *, *, #17, .F. ) ;
#209 = AXIS2_PLACEMENT_3D ( 'NONE', #187, #204, #9 ) ;
#210 = LINE ( 'NONE', #106, #99 ) ;
#211 = EDGE_CURVE ( 'NONE', #231, #234, #43, .T. ) ;
#212 = CYLINDRICAL_SURFACE ( 'NONE', #35, 0.7499999999999970024 ) ;
#213 = DIRECTION ( 'NONE',  ( 5.135813185032654924E-31, 1.000000000000000000, 1.445602896647346559E-16 ) ) ;
#214 = CC_DESIGN_SECURITY_CLASSIFICATION ( #264, ( #36 ) ) ;
#215 = CC_DESIGN_APPROVAL ( #277, ( #41 ) ) ;
#216 = DIRECTION ( 'NONE',  ( -3.491481338843133355E-15, 1.224646799147353454E-16, -1.000000000000000000 ) ) ;
#217 = CARTESIAN_POINT ( 'NONE',  ( 2.618611004132365399E-15, -9.184850993605205137E-17, 0.7500000000000044409 ) ) ;
#218 = CARTESIAN_POINT ( 'NONE',  ( 1.117274028429802674E-13, 0.5999999999999942046, 32.00000000000000000 ) ) ;
#219 = CLOSED_SHELL ( 'NONE', ( #86, #105, #37 ) ) ;
#220 = DIRECTION ( 'NONE',  ( -2.468850131082245622E-15, 0.7071067811865532349, -0.7071067811865417996 ) ) ;
#221 = CC_DESIGN_APPROVAL ( #202, ( #36 ) ) ;
#222 = DATE_AND_TIME ( #45, #267 ) ;
#223 = PERSON_AND_ORGANIZATION ( #189, #232 ) ;
#224 = PERSON_AND_ORGANIZATION ( #189, #232 ) ;
#225 = CONICAL_SURFACE ( 'NONE', #184, 0.7499999999999962252, 0.7853981633974428389 ) ;
#226 = CC_DESIGN_PERSON_AND_ORGANIZATION_ASSIGNMENT ( #180, #74, ( #41 ) ) ;
#227 = COORDINATED_UNIVERSAL_TIME_OFFSET ( 1, 0, .AHEAD. ) ;
#228 = EDGE_LOOP ( 'NONE', ( #30, #160, #5, #269 ) ) ;
#229 = DIRECTION ( 'NONE',  ( -3.491481338843133355E-15, 1.224646799147353454E-16, -1.000000000000000000 ) ) ;
#230 = FACE_OUTER_BOUND ( 'NONE', #203, .T. ) ;
#231 = VERTEX_POINT ( 'NONE', #218 ) ;
#232 = ORGANIZATION ( 'UNSPECIFIED', 'UNSPECIFIED', '' ) ;
#233 = EDGE_LOOP ( 'NONE', ( #142, #101 ) ) ;
#234 = VERTEX_POINT ( 'NONE', #90 ) ;
#235 = DIRECTION ( 'NONE',  ( 4.275831445896959482E-31, 1.000000000000000000, 1.224646799147353454E-16 ) ) ;
#236 = AXIS2_PLACEMENT_3D ( 'NONE', #153, #145, #235 ) ;
#237 = CIRCLE ( 'NONE', #112, 0.7499999999999962252 ) ;
#238 = DIRECTION ( 'NONE',  ( -4.275831445896959482E-31, -1.000000000000000000, -1.224646799147353454E-16 ) ) ;
#239 = CARTESIAN_POINT ( 'NONE',  ( 2.618611004132365399E-15, -9.184850993605205137E-17, 0.7500000000000044409 ) ) ;
#240 = APPLICATION_CONTEXT ( 'configuration controlled 3d designs of mechanical parts and assemblies' ) ;
#241 = CARTESIAN_POINT ( 'NONE',  ( 0.0000000000000000000, 0.0000000000000000000, 0.0000000000000000000 ) ) ;
#242 = CARTESIAN_POINT ( 'NONE',  ( 1.118008816509291186E-13, -0.6000000000000019762, 32.00000000000000000 ) ) ;
#243 = CC_DESIGN_PERSON_AND_ORGANIZATION_ASSIGNMENT ( #22, #93, ( #264 ) ) ;
#244 = DIRECTION ( 'NONE',  ( 2.468850131082278754E-15, -0.7071067811865437980, 0.7071067811865513475 ) ) ;
#245 =( NAMED_UNIT ( * ) PLANE_ANGLE_UNIT ( ) SI_UNIT ( $, .RADIAN. ) );
#246 = APPROVAL_STATUS ( 'not_yet_approved' ) ;
#247 = CLOSED_SHELL ( 'NONE', ( #268, #52, #156, #192, #133, #252 ) ) ;
#248 =( GEOMETRIC_REPRESENTATION_CONTEXT ( 3 ) GLOBAL_UNCERTAINTY_ASSIGNED_CONTEXT ( ( #282 ) ) GLOBAL_UNIT_ASSIGNED_CONTEXT ( ( #100, #245, #4 ) ) REPRESENTATION_CONTEXT ( 'NONE', 'WORKASPACE' ) );
#249 = DIRECTION ( 'NONE',  ( -3.491481338843133355E-15, 1.224646799147353454E-16, -1.000000000000000000 ) ) ;
#250 = APPROVAL_STATUS ( 'not_yet_approved' ) ;
#251 = APPROVAL_ROLE ( '' ) ;
#252 = ADVANCED_FACE ( 'NONE', ( #68 ), #265, .F. ) ;
#253 = CALENDAR_DATE ( 2021, 21, 9 ) ;
#254 = VECTOR ( 'NONE', #65, 1000.000000000000000 ) ;
#255 = ORIENTED_EDGE ( 'NONE', *, *, #286, .T. ) ;
#256 = LOCAL_TIME ( 9, 38, 0.0000000000000000000, #114 ) ;
#257 = APPROVAL_DATE_TIME ( #178, #202 ) ;
#258 = CARTESIAN_POINT ( 'NONE',  ( 1.112036806421538195E-13, -3.900500055284321411E-15, 31.85000000000000497 ) ) ;
#259 = DIRECTION ( 'NONE',  ( 3.491481338843133355E-15, -1.224646799147353454E-16, 1.000000000000000000 ) ) ;
#260 = CC_DESIGN_DATE_AND_TIME_ASSIGNMENT ( #70, #135, ( #41 ) ) ;
#261 = DIRECTION ( 'NONE',  ( 0.0000000000000000000, 1.000000000000000000, 0.0000000000000000000 ) ) ;
#262 = DIRECTION ( 'NONE',  ( 0.0000000000000000000, 1.000000000000000000, 0.0000000000000000000 ) ) ;
#263 = CARTESIAN_POINT ( 'NONE',  ( 2.618611004132372105E-15, -2.168404344971029576E-16, 0.7500000000000063283 ) ) ;
#264 = SECURITY_CLASSIFICATION ( '', '', #138 ) ;
#265 = PLANE ( 'NONE',  #185 ) ;
#266 = ORIENTED_EDGE ( 'NONE', *, *, #118, .F. ) ;
#267 = LOCAL_TIME ( 9, 38, 0.0000000000000000000, #287 ) ;
#268 = ADVANCED_FACE ( 'NONE', ( #230 ), #172, .T. ) ;
#269 = ORIENTED_EDGE ( 'NONE', *, *, #12, .F. ) ;
#270 = PERSON_AND_ORGANIZATION ( #189, #232 ) ;
#271 = PERSON_AND_ORGANIZATION ( #189, #232 ) ;
#272 = ORIENTED_EDGE ( 'NONE', *, *, #173, .T. ) ;
#273 = FACE_OUTER_BOUND ( 'NONE', #233, .T. ) ;
#274 = EDGE_CURVE ( 'NONE', #276, #51, #47, .T. ) ;
#275 = CARTESIAN_POINT ( 'NONE',  ( 2.618611004132365005E-15, -0.7499999999999963363, 0.7500000000000043299 ) ) ;
#276 = VERTEX_POINT ( 'NONE', #181 ) ;
#277 = APPROVAL ( #246, 'UNSPECIFIED' ) ;
#278 = ORIENTED_EDGE ( 'NONE', *, *, #8, .T. ) ;
#279 = CARTESIAN_POINT ( 'NONE',  ( 5.700299433307911243E-14, -0.7499999999999963363, 0.7500000000000043299 ) ) ;
#280 = DIRECTION ( 'NONE',  ( -3.491481338843133355E-15, 1.224646799147353454E-16, -1.000000000000000000 ) ) ;
#281 = CARTESIAN_POINT ( 'NONE',  ( 1.117274028429802674E-13, -3.918869757271531052E-15, 32.00000000000000000 ) ) ;
#282 = UNCERTAINTY_MEASURE_WITH_UNIT (LENGTH_MEASURE( 1.000000000000000082E-05 ), #100, 'distance_accuracy_value', 'NONE');
#283 = CARTESIAN_POINT ( 'NONE',  ( 2.710459514068416760E-15, 0.7499999999999961142, 0.7500000000000045519 ) ) ;
#284 = VERTEX_POINT ( 'NONE', #176 ) ;
#285 = DIRECTION ( 'NONE',  ( 1.000000000000000000, 0.0000000000000000000, 0.0000000000000000000 ) ) ;
#286 = EDGE_CURVE ( 'NONE', #284, #104, #54, .T. ) ;
#287 = COORDINATED_UNIVERSAL_TIME_OFFSET ( 1, 0, .AHEAD. ) ;
ENDSEC;
END-ISO-10303-21;
