ISO-10303-21;
HEADER;
FILE_DESCRIPTION (( 'STEP AP203' ),
    '1' );
FILE_NAME ('953721.step',
    '2021-11-25T13:42:34',
    ( '' ),
    ( '' ),
    'SwSTEP 2.0',
    'SolidWorks 2019',
    '' );
FILE_SCHEMA (( 'CONFIG_CONTROL_DESIGN' ));
ENDSEC;

DATA;
#1 = ADVANCED_FACE ( 'NONE', ( #82, #7 ), #186, .T. ) ;
#2 = CC_DESIGN_DATE_AND_TIME_ASSIGNMENT ( #136, #194, ( #190 ) ) ;
#3 = AXIS2_PLACEMENT_3D ( 'NONE', #200, #10, #141 ) ;
#4 = ORIENTED_EDGE ( 'NONE', *, *, #8, .F. ) ;
#5 = COORDINATED_UNIVERSAL_TIME_OFFSET ( 1, 0, .AHEAD. ) ;
#6 = COORDINATED_UNIVERSAL_TIME_OFFSET ( 1, 0, .AHEAD. ) ;
#7 = FACE_OUTER_BOUND ( 'NONE', #102, .T. ) ;
#8 = EDGE_CURVE ( 'NONE', #58, #58, #28, .T. ) ;
#9 = DIRECTION ( 'NONE',  ( -4.275831445896958607E-31, -1.000000000000000000, -1.224646799147353207E-16 ) ) ;
#10 = DIRECTION ( 'NONE',  ( -3.491481338843133355E-15, 1.224646799147353207E-16, -1.000000000000000000 ) ) ;
#11 = CARTESIAN_POINT ( 'NONE',  ( 1.316288464743861212E-13, -4.616918432785521081E-15, 37.69999999999999574 ) ) ;
#12 = FACE_OUTER_BOUND ( 'NONE', #124, .T. ) ;
#13 =( NAMED_UNIT ( * ) SI_UNIT ( $, .STERADIAN. ) SOLID_ANGLE_UNIT ( ) );
#14 = APPROVAL_PERSON_ORGANIZATION ( #70, #131, #99 ) ;
#15 = PERSON_AND_ORGANIZATION ( #42, #19 ) ;
#16 = ORIENTED_EDGE ( 'NONE', *, *, #8, .T. ) ;
#17 = APPROVAL_STATUS ( 'not_yet_approved' ) ;
#18 = DATE_AND_TIME ( #36, #142 ) ;
#19 = ORGANIZATION ( 'UNSPECIFIED', 'UNSPECIFIED', '' ) ;
#20 = APPLICATION_PROTOCOL_DEFINITION ( 'international standard', 'config_control_design', 1994, #134 ) ;
#21 = CARTESIAN_POINT ( 'NONE',  ( 8.617577878390841576E-15, -3.022639430366015633E-16, 2.468172400785675791 ) ) ;
#22 = CARTESIAN_POINT ( 'NONE',  ( 0.0000000000000000000, 0.0000000000000000000, 0.0000000000000000000 ) ) ;
#23 = FACE_OUTER_BOUND ( 'NONE', #77, .T. ) ;
#24 = DIRECTION ( 'NONE',  ( -3.491481338843133355E-15, 1.224646799147353207E-16, -1.000000000000000000 ) ) ;
#25 = DIRECTION ( 'NONE',  ( 3.491481338843133355E-15, -1.224646799147353207E-16, 1.000000000000000000 ) ) ;
#26 = AXIS2_PLACEMENT_3D ( 'NONE', #93, #122, #55 ) ;
#27 = CC_DESIGN_PERSON_AND_ORGANIZATION_ASSIGNMENT ( #49, #166, ( #98 ) ) ;
#28 = CIRCLE ( 'NONE', #151, 1.499999999999994227 ) ;
#29 = CC_DESIGN_APPROVAL ( #90, ( #48 ) ) ;
#30 = PRODUCT_DEFINITION_SHAPE ( 'NONE', 'NONE',  #190 ) ;
#31 = AXIS2_PLACEMENT_3D ( 'NONE', #125, #199, #129 ) ;
#32 = PERSON_AND_ORGANIZATION ( #42, #19 ) ;
#33 = ORIENTED_EDGE ( 'NONE', *, *, #34, .F. ) ;
#34 = EDGE_CURVE ( 'NONE', #108, #108, #59, .T. ) ;
#35 = ADVANCED_FACE ( 'NONE', ( #157 ), #95, .F. ) ;
#36 = CALENDAR_DATE ( 2021, 25, 11 ) ;
#37 = PERSON_AND_ORGANIZATION ( #42, #19 ) ;
#38 = DATE_AND_TIME ( #140, #68 ) ;
#39 = DIRECTION ( 'NONE',  ( -4.275831445896958607E-31, -1.000000000000000000, -1.224646799147353207E-16 ) ) ;
#40 = CLOSED_SHELL ( 'NONE', ( #35, #47, #173, #178 ) ) ;
#41 =( NAMED_UNIT ( * ) PLANE_ANGLE_UNIT ( ) SI_UNIT ( $, .RADIAN. ) );
#42 = PERSON ( 'UNSPECIFIED', 'UNSPECIFIED', 'UNSPECIFIED', ('UNSPECIFIED'), ('UNSPECIFIED'), ('UNSPECIFIED') ) ;
#43 = FACE_OUTER_BOUND ( 'NONE', #182, .T. ) ;
#44 = MANIFOLD_SOLID_BREP ( 'Corps-Déplacer/Copier1[2]', #115 ) ;
#45 = CC_DESIGN_SECURITY_CLASSIFICATION ( #48, ( #133 ) ) ;
#46 = CARTESIAN_POINT ( 'NONE',  ( 0.0000000000000000000, 0.0000000000000000000, 0.0000000000000000000 ) ) ;
#47 = ADVANCED_FACE ( 'NONE', ( #188, #43 ), #91, .T. ) ;
#48 = SECURITY_CLASSIFICATION ( '', '', #138 ) ;
#49 = PERSON_AND_ORGANIZATION ( #42, #19 ) ;
#50 = EDGE_CURVE ( 'NONE', #78, #78, #196, .T. ) ;
#51 = DATE_AND_TIME ( #153, #126 ) ;
#52 = DIRECTION ( 'NONE',  ( -3.491481338843133355E-15, 1.224646799147353207E-16, -1.000000000000000000 ) ) ;
#53 = ADVANCED_BREP_SHAPE_REPRESENTATION ( '953721', ( #117, #44, #148 ), #116 ) ;
#54 = PERSON_AND_ORGANIZATION ( #42, #19 ) ;
#55 = DIRECTION ( 'NONE',  ( -4.275831445896958607E-31, -1.000000000000000000, -1.224646799147353207E-16 ) ) ;
#56 = ORIENTED_EDGE ( 'NONE', *, *, #50, .T. ) ;
#57 = CARTESIAN_POINT ( 'NONE',  ( 1.326762908760390423E-13, 8.998558695971067645E-33, 38.00000000000000000 ) ) ;
#58 = VERTEX_POINT ( 'NONE', #185 ) ;
#59 = CIRCLE ( 'NONE', #76, 0.07500000000000042744 ) ;
#60 = DIRECTION ( 'NONE',  ( 3.491481338843133355E-15, -1.224646799147353207E-16, 1.000000000000000000 ) ) ;
#61 = CARTESIAN_POINT ( 'NONE',  ( 1.326762908760390423E-13, 1.199999999999993960, 38.00000000000000000 ) ) ;
#62 = ORIENTED_EDGE ( 'NONE', *, *, #34, .T. ) ;
#63 = EDGE_LOOP ( 'NONE', ( #4 ) ) ;
#64 = AXIS2_PLACEMENT_3D ( 'NONE', #176, #25, #9 ) ;
#65 = ADVANCED_FACE ( 'NONE', ( #128 ), #110, .T. ) ;
#66 = APPROVAL_DATE_TIME ( #38, #159 ) ;
#67 = EDGE_LOOP ( 'NONE', ( #85 ) ) ;
#68 = LOCAL_TIME ( 14, 42, 34.00000000000000000, #5 ) ;
#69 = APPROVAL_DATE_TIME ( #104, #90 ) ;
#70 = PERSON_AND_ORGANIZATION ( #42, #19 ) ;
#71 = CIRCLE ( 'NONE', #31, 1.199999999999998623 ) ;
#72 = FACE_OUTER_BOUND ( 'NONE', #160, .T. ) ;
#73 = DIRECTION ( 'NONE',  ( -3.491481338843133355E-15, 1.224646799147353207E-16, -1.000000000000000000 ) ) ;
#74 = CARTESIAN_POINT ( 'NONE',  ( 8.617577878390841576E-15, 7.135994344001610169E-16, 2.468172400785675791 ) ) ;
#75 = FACE_BOUND ( 'NONE', #67, .T. ) ;
#76 = AXIS2_PLACEMENT_3D ( 'NONE', #89, #109, #156 ) ;
#77 = EDGE_LOOP ( 'NONE', ( #169 ) ) ;
#78 = VERTEX_POINT ( 'NONE', #174 ) ;
#79 = AXIS2_PLACEMENT_3D ( 'NONE', #57, #170, #201 ) ;
#80 = APPROVAL_PERSON_ORGANIZATION ( #54, #90, #198 ) ;
#81 = PERSON_AND_ORGANIZATION ( #42, #19 ) ;
#82 = FACE_BOUND ( 'NONE', #146, .T. ) ;
#83 = APPROVAL_STATUS ( 'not_yet_approved' ) ;
#84 = AXIS2_PLACEMENT_3D ( 'NONE', #11, #73, #158 ) ;
#85 = ORIENTED_EDGE ( 'NONE', *, *, #86, .T. ) ;
#86 = EDGE_CURVE ( 'NONE', #144, #144, #71, .T. ) ;
#87 = CALENDAR_DATE ( 2021, 25, 11 ) ;
#88 = CALENDAR_DATE ( 2021, 25, 11 ) ;
#89 = CARTESIAN_POINT ( 'NONE',  ( -3.206873584422736690E-32, 1.124819836996399535E-33, -9.184850993605201131E-18 ) ) ;
#90 = APPROVAL ( #17, 'UNSPECIFIED' ) ;
#91 = CYLINDRICAL_SURFACE ( 'NONE', #96, 1.499999999999996447 ) ;
#92 =( LENGTH_UNIT ( ) NAMED_UNIT ( * ) SI_UNIT ( .MILLI., .METRE. ) );
#93 = CARTESIAN_POINT ( 'NONE',  ( -1.603436792211368345E-32, 5.624099184981997675E-34, -4.592425496802600565E-18 ) ) ;
#94 = APPROVAL_PERSON_ORGANIZATION ( #37, #159, #183 ) ;
#95 = PLANE ( 'NONE',  #132 ) ;
#96 = AXIS2_PLACEMENT_3D ( 'NONE', #22, #154, #143 ) ;
#97 = DIRECTION ( 'NONE',  ( 3.491481338843133355E-15, -1.224646799147353207E-16, 1.000000000000000000 ) ) ;
#98 = PRODUCT ( '953721', '953721', '', ( #114 ) ) ;
#99 = APPROVAL_ROLE ( '' ) ;
#100 = CC_DESIGN_PERSON_AND_ORGANIZATION_ASSIGNMENT ( #120, #168, ( #133 ) ) ;
#101 = APPROVAL_DATE_TIME ( #18, #131 ) ;
#102 = EDGE_LOOP ( 'NONE', ( #56 ) ) ;
#103 = COORDINATED_UNIVERSAL_TIME_OFFSET ( 1, 0, .AHEAD. ) ;
#104 = DATE_AND_TIME ( #88, #139 ) ;
#105 = CARTESIAN_POINT ( 'NONE',  ( 1.316288464743861212E-13, 1.499999999999994005, 37.69999999999999574 ) ) ;
#106 = PRODUCT_RELATED_PRODUCT_CATEGORY ( 'detail', '', ( #98 ) ) ;
#107 = PLANE ( 'NONE',  #26 ) ;
#108 = VERTEX_POINT ( 'NONE', #184 ) ;
#109 = DIRECTION ( 'NONE',  ( -3.491481338843133355E-15, 1.224646799147353207E-16, -1.000000000000000000 ) ) ;
#110 = PLANE ( 'NONE',  #64 ) ;
#111 = EDGE_LOOP ( 'NONE', ( #16 ) ) ;
#112 = AXIS2_PLACEMENT_3D ( 'NONE', #137, #97, #192 ) ;
#113 = CC_DESIGN_PERSON_AND_ORGANIZATION_ASSIGNMENT ( #81, #150, ( #48 ) ) ;
#114 = MECHANICAL_CONTEXT ( 'NONE', #123, 'mechanical' ) ;
#115 = CLOSED_SHELL ( 'NONE', ( #197, #1, #65 ) ) ;
#116 =( GEOMETRIC_REPRESENTATION_CONTEXT ( 3 ) GLOBAL_UNCERTAINTY_ASSIGNED_CONTEXT ( ( #165 ) ) GLOBAL_UNIT_ASSIGNED_CONTEXT ( ( #92, #41, #13 ) ) REPRESENTATION_CONTEXT ( 'NONE', 'WORKASPACE' ) );
#117 = MANIFOLD_SOLID_BREP ( 'Corps-Déplacer/Copier1[1]', #40 ) ;
#118 = EDGE_LOOP ( 'NONE', ( #167 ) ) ;
#119 = DATE_TIME_ROLE ( 'classification_date' ) ;
#120 = PERSON_AND_ORGANIZATION ( #42, #19 ) ;
#121 = CC_DESIGN_APPROVAL ( #159, ( #190 ) ) ;
#122 = DIRECTION ( 'NONE',  ( 3.491481338843133355E-15, -1.224646799147353207E-16, 1.000000000000000000 ) ) ;
#123 = APPLICATION_CONTEXT ( 'configuration controlled 3d designs of mechanical parts and assemblies' ) ;
#124 = EDGE_LOOP ( 'NONE', ( #127 ) ) ;
#125 = CARTESIAN_POINT ( 'NONE',  ( 1.326762908760390423E-13, -4.653657836759941941E-15, 38.00000000000000000 ) ) ;
#126 = LOCAL_TIME ( 14, 42, 34.00000000000000000, #149 ) ;
#127 = ORIENTED_EDGE ( 'NONE', *, *, #145, .F. ) ;
#128 = FACE_OUTER_BOUND ( 'NONE', #118, .T. ) ;
#129 = DIRECTION ( 'NONE',  ( 0.0000000000000000000, 1.000000000000000000, 0.0000000000000000000 ) ) ;
#130 = APPLICATION_PROTOCOL_DEFINITION ( 'international standard', 'config_control_design', 1994, #123 ) ;
#131 = APPROVAL ( #179, 'UNSPECIFIED' ) ;
#132 = AXIS2_PLACEMENT_3D ( 'NONE', #74, #60, #39 ) ;
#133 = PRODUCT_DEFINITION_FORMATION_WITH_SPECIFIED_SOURCE ( 'ANY', '', #98, .NOT_KNOWN. ) ;
#134 = APPLICATION_CONTEXT ( 'configuration controlled 3d designs of mechanical parts and assemblies' ) ;
#135 = CC_DESIGN_PERSON_AND_ORGANIZATION_ASSIGNMENT ( #32, #191, ( #133 ) ) ;
#136 = DATE_AND_TIME ( #87, #195 ) ;
#137 = CARTESIAN_POINT ( 'NONE',  ( 8.617577878390841576E-15, -3.022639430366015633E-16, 2.468172400785675791 ) ) ;
#138 = SECURITY_CLASSIFICATION_LEVEL ( 'unclassified' ) ;
#139 = LOCAL_TIME ( 14, 42, 34.00000000000000000, #6 ) ;
#140 = CALENDAR_DATE ( 2021, 25, 11 ) ;
#141 = DIRECTION ( 'NONE',  ( 0.0000000000000000000, 1.000000000000000000, 0.0000000000000000000 ) ) ;
#142 = LOCAL_TIME ( 14, 42, 34.00000000000000000, #103 ) ;
#143 = DIRECTION ( 'NONE',  ( 4.275831445896958607E-31, 1.000000000000000000, 1.224646799147352961E-16 ) ) ;
#144 = VERTEX_POINT ( 'NONE', #61 ) ;
#145 = EDGE_CURVE ( 'NONE', #203, #203, #155, .T. ) ;
#146 = EDGE_LOOP ( 'NONE', ( #33 ) ) ;
#147 = DIRECTION ( 'NONE',  ( 0.0000000000000000000, 0.0000000000000000000, 1.000000000000000000 ) ) ;
#148 = AXIS2_PLACEMENT_3D ( 'NONE', #46, #147, #161 ) ;
#149 = COORDINATED_UNIVERSAL_TIME_OFFSET ( 1, 0, .AHEAD. ) ;
#150 = PERSON_AND_ORGANIZATION_ROLE ( 'classification_officer' ) ;
#151 = AXIS2_PLACEMENT_3D ( 'NONE', #21, #52, #171 ) ;
#152 = SHAPE_DEFINITION_REPRESENTATION ( #30, #53 ) ;
#153 = CALENDAR_DATE ( 2021, 25, 11 ) ;
#154 = DIRECTION ( 'NONE',  ( -3.491481338843133355E-15, 1.224646799147353207E-16, -1.000000000000000000 ) ) ;
#155 = CIRCLE ( 'NONE', #84, 1.499999999999998446 ) ;
#156 = DIRECTION ( 'NONE',  ( 4.275831445896958607E-31, 1.000000000000000000, 1.224646799147353207E-16 ) ) ;
#157 = FACE_OUTER_BOUND ( 'NONE', #111, .T. ) ;
#158 = DIRECTION ( 'NONE',  ( 0.0000000000000000000, 1.000000000000000000, 0.0000000000000000000 ) ) ;
#159 = APPROVAL ( #83, 'UNSPECIFIED' ) ;
#160 = EDGE_LOOP ( 'NONE', ( #62 ) ) ;
#161 = DIRECTION ( 'NONE',  ( 1.000000000000000000, 0.0000000000000000000, 0.0000000000000000000 ) ) ;
#162 = CC_DESIGN_PERSON_AND_ORGANIZATION_ASSIGNMENT ( #15, #193, ( #190 ) ) ;
#163 = DESIGN_CONTEXT ( 'detailed design', #134, 'design' ) ;
#164 = AXIS2_PLACEMENT_3D ( 'NONE', #202, #24, #187 ) ;
#165 = UNCERTAINTY_MEASURE_WITH_UNIT (LENGTH_MEASURE( 1.000000000000000082E-05 ), #92, 'distance_accuracy_value', 'NONE');
#166 = PERSON_AND_ORGANIZATION_ROLE ( 'design_owner' ) ;
#167 = ORIENTED_EDGE ( 'NONE', *, *, #50, .F. ) ;
#168 = PERSON_AND_ORGANIZATION_ROLE ( 'creator' ) ;
#169 = ORIENTED_EDGE ( 'NONE', *, *, #86, .F. ) ;
#170 = DIRECTION ( 'NONE',  ( -3.491481338843133355E-15, 1.224646799147353207E-16, -1.000000000000000000 ) ) ;
#171 = DIRECTION ( 'NONE',  ( 0.0000000000000000000, 1.000000000000000000, 0.0000000000000000000 ) ) ;
#172 = CONICAL_SURFACE ( 'NONE', #3, 1.199999999999998623, 0.7853981633974453924 ) ;
#173 = ADVANCED_FACE ( 'NONE', ( #12, #75 ), #172, .T. ) ;
#174 = CARTESIAN_POINT ( 'NONE',  ( 8.617577878390841576E-15, 1.499999999999994005, 2.468172400785675791 ) ) ;
#175 = PLANE ( 'NONE',  #79 ) ;
#176 = CARTESIAN_POINT ( 'NONE',  ( 8.617577878390841576E-15, 7.135994344001610169E-16, 2.468172400785675791 ) ) ;
#177 = CC_DESIGN_APPROVAL ( #131, ( #133 ) ) ;
#178 = ADVANCED_FACE ( 'NONE', ( #23 ), #175, .F. ) ;
#179 = APPROVAL_STATUS ( 'not_yet_approved' ) ;
#180 = COORDINATED_UNIVERSAL_TIME_OFFSET ( 1, 0, .AHEAD. ) ;
#181 = ORIENTED_EDGE ( 'NONE', *, *, #145, .T. ) ;
#182 = EDGE_LOOP ( 'NONE', ( #181 ) ) ;
#183 = APPROVAL_ROLE ( '' ) ;
#184 = CARTESIAN_POINT ( 'NONE',  ( 5.345529420184391292E-48, 0.07500000000000042744, 0.0000000000000000000 ) ) ;
#185 = CARTESIAN_POINT ( 'NONE',  ( 8.617577878390841576E-15, 1.499999999999994005, 2.468172400785675791 ) ) ;
#186 = CONICAL_SURFACE ( 'NONE', #112, 1.499999999999994227, 0.5235987755982924874 ) ;
#187 = DIRECTION ( 'NONE',  ( 0.0000000000000000000, 1.000000000000000000, 0.0000000000000000000 ) ) ;
#188 = FACE_OUTER_BOUND ( 'NONE', #63, .T. ) ;
#189 = CC_DESIGN_DATE_AND_TIME_ASSIGNMENT ( #51, #119, ( #48 ) ) ;
#190 = PRODUCT_DEFINITION ( 'UNKNOWN', '', #133, #163 ) ;
#191 = PERSON_AND_ORGANIZATION_ROLE ( 'design_supplier' ) ;
#192 = DIRECTION ( 'NONE',  ( 0.0000000000000000000, -1.000000000000000000, 0.0000000000000000000 ) ) ;
#193 = PERSON_AND_ORGANIZATION_ROLE ( 'creator' ) ;
#194 = DATE_TIME_ROLE ( 'creation_date' ) ;
#195 = LOCAL_TIME ( 14, 42, 34.00000000000000000, #180 ) ;
#196 = CIRCLE ( 'NONE', #164, 1.499999999999994227 ) ;
#197 = ADVANCED_FACE ( 'NONE', ( #72 ), #107, .F. ) ;
#198 = APPROVAL_ROLE ( '' ) ;
#199 = DIRECTION ( 'NONE',  ( -3.491481338843133355E-15, 1.224646799147353207E-16, -1.000000000000000000 ) ) ;
#200 = CARTESIAN_POINT ( 'NONE',  ( 1.326762908760390423E-13, -4.653657836759941941E-15, 38.00000000000000000 ) ) ;
#201 = DIRECTION ( 'NONE',  ( 4.275831445896958607E-31, 1.000000000000000000, 1.224646799147353207E-16 ) ) ;
#202 = CARTESIAN_POINT ( 'NONE',  ( 8.617577878390841576E-15, -3.022639430366015633E-16, 2.468172400785675791 ) ) ;
#203 = VERTEX_POINT ( 'NONE', #105 ) ;
ENDSEC;
END-ISO-10303-21;
