ISO-10303-21;
HEADER;
FILE_DESCRIPTION (( 'STEP AP203' ),
    '1' );
FILE_NAME ('953362.step',
    '2021-11-30T06:45:07',
    ( '' ),
    ( '' ),
    'SwSTEP 2.0',
    'SolidWorks 2019',
    '' );
FILE_SCHEMA (( 'CONFIG_CONTROL_DESIGN' ));
ENDSEC;

DATA;
#1 = APPROVAL_DATE_TIME ( #43, #7 ) ;
#2 = COORDINATED_UNIVERSAL_TIME_OFFSET ( 1, 0, .AHEAD. ) ;
#3 = AXIS2_PLACEMENT_3D ( 'NONE', #294, #180, #15 ) ;
#4 = DIRECTION ( 'NONE',  ( -3.491481338843133355E-15, 1.224646799147353207E-16, -1.000000000000000000 ) ) ;
#5 = EDGE_LOOP ( 'NONE', ( #99 ) ) ;
#6 = EDGE_LOOP ( 'NONE', ( #169 ) ) ;
#7 = APPROVAL ( #249, 'UNSPECIFIED' ) ;
#8 = ORIENTED_EDGE ( 'NONE', *, *, #168, .T. ) ;
#9 = APPLICATION_CONTEXT ( 'configuration controlled 3d designs of mechanical parts and assemblies' ) ;
#10 = EDGE_LOOP ( 'NONE', ( #76 ) ) ;
#11 = PERSON_AND_ORGANIZATION_ROLE ( 'design_owner' ) ;
#12 = AXIS2_PLACEMENT_3D ( 'NONE', #50, #119, #256 ) ;
#13 = PERSON_AND_ORGANIZATION ( #126, #241 ) ;
#14 = VERTEX_POINT ( 'NONE', #289 ) ;
#15 = DIRECTION ( 'NONE',  ( 0.0000000000000000000, 1.000000000000000000, 0.0000000000000000000 ) ) ;
#16 = CARTESIAN_POINT ( 'NONE',  ( 1.745740669421566678E-13, -6.123233995736766085E-15, 50.00000000000000000 ) ) ;
#17 = CC_DESIGN_APPROVAL ( #176, ( #293 ) ) ;
#18 = FACE_BOUND ( 'NONE', #192, .T. ) ;
#19 = PERSON_AND_ORGANIZATION_ROLE ( 'creator' ) ;
#20 = DIRECTION ( 'NONE',  ( -3.491481338843133355E-15, 1.224646799147353207E-16, -1.000000000000000000 ) ) ;
#21 = APPROVAL_DATE_TIME ( #197, #176 ) ;
#22 = DIRECTION ( 'NONE',  ( -3.491481338843133355E-15, 1.224646799147353207E-16, -1.000000000000000000 ) ) ;
#23 = AXIS2_PLACEMENT_3D ( 'NONE', #145, #201, #302 ) ;
#24 = APPROVAL_ROLE ( '' ) ;
#25 = CC_DESIGN_APPROVAL ( #7, ( #233 ) ) ;
#26 = FACE_OUTER_BOUND ( 'NONE', #69, .T. ) ;
#27 = DIRECTION ( 'NONE',  ( 3.491481338843133355E-15, -1.224646799147353207E-16, 1.000000000000000000 ) ) ;
#28 = CARTESIAN_POINT ( 'NONE',  ( 1.745740669421566678E-13, 8.998558695971067645E-33, 50.00000000000000000 ) ) ;
#29 = EDGE_LOOP ( 'NONE', ( #215 ) ) ;
#30 = ADVANCED_FACE ( 'NONE', ( #250, #90 ), #188, .T. ) ;
#31 = DATE_AND_TIME ( #218, #63 ) ;
#32 = CC_DESIGN_PERSON_AND_ORGANIZATION_ASSIGNMENT ( #13, #216, ( #142 ) ) ;
#33 = FACE_OUTER_BOUND ( 'NONE', #49, .T. ) ;
#34 = CARTESIAN_POINT ( 'NONE',  ( 7.415022847717731821E-14, 1.499999999999994005, 21.23746950964550351 ) ) ;
#35 = APPLICATION_CONTEXT ( 'configuration controlled 3d designs of mechanical parts and assemblies' ) ;
#36 = VERTEX_POINT ( 'NONE', #79 ) ;
#37 = DIRECTION ( 'NONE',  ( -3.491481338843133355E-15, 1.224646799147353207E-16, -1.000000000000000000 ) ) ;
#38 = PERSON_AND_ORGANIZATION ( #126, #241 ) ;
#39 = TOROIDAL_SURFACE ( 'NONE', #122, 2.959999999999999964, 2.000000000000000000 ) ;
#40 = FACE_BOUND ( 'NONE', #167, .T. ) ;
#41 = CARTESIAN_POINT ( 'NONE',  ( -2.071987602965864441E-31, 7.267554197170366295E-33, -5.934408355315443956E-17 ) ) ;
#42 = CARTESIAN_POINT ( 'NONE',  ( -4.143975205931728882E-31, 1.453510839434073259E-32, -1.186881671063088791E-16 ) ) ;
#43 = DATE_AND_TIME ( #267, #221 ) ;
#44 = LOCAL_TIME ( 7, 45, 7.000000000000000000, #94 ) ;
#45 = PERSON_AND_ORGANIZATION_ROLE ( 'classification_officer' ) ;
#46 = ADVANCED_BREP_SHAPE_REPRESENTATION ( '953362', ( #258, #261, #48 ), #183 ) ;
#47 = ADVANCED_FACE ( 'NONE', ( #67 ), #51, .F. ) ;
#48 = AXIS2_PLACEMENT_3D ( 'NONE', #264, #82, #55 ) ;
#49 = EDGE_LOOP ( 'NONE', ( #154 ) ) ;
#50 = CARTESIAN_POINT ( 'NONE',  ( 0.0000000000000000000, 0.0000000000000000000, 0.0000000000000000000 ) ) ;
#51 = PLANE ( 'NONE',  #173 ) ;
#52 = ORIENTED_EDGE ( 'NONE', *, *, #280, .T. ) ;
#53 = CC_DESIGN_DATE_AND_TIME_ASSIGNMENT ( #181, #163, ( #142 ) ) ;
#54 = CIRCLE ( 'NONE', #279, 0.9691624327025897268 ) ;
#55 = DIRECTION ( 'NONE',  ( 1.000000000000000000, 0.0000000000000000000, 0.0000000000000000000 ) ) ;
#56 = FACE_OUTER_BOUND ( 'NONE', #281, .T. ) ;
#57 = CC_DESIGN_PERSON_AND_ORGANIZATION_ASSIGNMENT ( #93, #19, ( #233 ) ) ;
#58 = PLANE ( 'NONE',  #251 ) ;
#59 = AXIS2_PLACEMENT_3D ( 'NONE', #260, #240, #288 ) ;
#60 = DIRECTION ( 'NONE',  ( 4.275831445896958607E-31, 1.000000000000000000, 1.224646799147353454E-16 ) ) ;
#61 = CC_DESIGN_PERSON_AND_ORGANIZATION_ASSIGNMENT ( #205, #11, ( #303 ) ) ;
#62 = DATE_TIME_ROLE ( 'classification_date' ) ;
#63 = LOCAL_TIME ( 7, 45, 7.000000000000000000, #2 ) ;
#64 = VERTEX_POINT ( 'NONE', #243 ) ;
#65 = CARTESIAN_POINT ( 'NONE',  ( 1.745740669421566678E-13, -6.123233995736766085E-15, 50.00000000000000000 ) ) ;
#66 = ADVANCED_FACE ( 'NONE', ( #26 ), #120, .T. ) ;
#67 = FACE_OUTER_BOUND ( 'NONE', #208, .T. ) ;
#68 = APPROVAL_PERSON_ORGANIZATION ( #172, #147, #24 ) ;
#69 = EDGE_LOOP ( 'NONE', ( #148 ) ) ;
#70 = CARTESIAN_POINT ( 'NONE',  ( 7.415022847717731821E-14, -2.600839905697687411E-15, 21.23746950964550351 ) ) ;
#71 = ADVANCED_FACE ( 'NONE', ( #56 ), #130, .F. ) ;
#72 = ORIENTED_EDGE ( 'NONE', *, *, #214, .T. ) ;
#73 = EDGE_LOOP ( 'NONE', ( #121 ) ) ;
#74 = CYLINDRICAL_SURFACE ( 'NONE', #12, 1.113499999999994605 ) ;
#75 = AXIS2_PLACEMENT_3D ( 'NONE', #217, #101, #155 ) ;
#76 = ORIENTED_EDGE ( 'NONE', *, *, #161, .F. ) ;
#77 = AXIS2_PLACEMENT_3D ( 'NONE', #65, #22, #229 ) ;
#78 = DIRECTION ( 'NONE',  ( 0.0000000000000000000, 1.000000000000000000, 0.0000000000000000000 ) ) ;
#79 = CARTESIAN_POINT ( 'NONE',  ( 2.793185071074506684E-14, 1.113499999999994161, 8.000000000000000000 ) ) ;
#80 = AXIS2_PLACEMENT_3D ( 'NONE', #184, #143, #225 ) ;
#81 = VERTEX_POINT ( 'NONE', #136 ) ;
#82 = DIRECTION ( 'NONE',  ( 0.0000000000000000000, 0.0000000000000000000, 1.000000000000000000 ) ) ;
#83 = EDGE_LOOP ( 'NONE', ( #211 ) ) ;
#84 = CYLINDRICAL_SURFACE ( 'NONE', #228, 1.499999999999999112 ) ;
#85 = CARTESIAN_POINT ( 'NONE',  ( -8.552847072295026068E-47, 0.9691624327025897268, 0.0000000000000000000 ) ) ;
#86 = CIRCLE ( 'NONE', #3, 0.9599999999999999645 ) ;
#87 = CALENDAR_DATE ( 2021, 30, 11 ) ;
#88 = VERTEX_POINT ( 'NONE', #231 ) ;
#89 = CC_DESIGN_DATE_AND_TIME_ASSIGNMENT ( #144, #62, ( #293 ) ) ;
#90 = FACE_BOUND ( 'NONE', #5, .T. ) ;
#91 = SECURITY_CLASSIFICATION_LEVEL ( 'unclassified' ) ;
#92 = FACE_OUTER_BOUND ( 'NONE', #98, .T. ) ;
#93 = PERSON_AND_ORGANIZATION ( #126, #241 ) ;
#94 = COORDINATED_UNIVERSAL_TIME_OFFSET ( 1, 0, .AHEAD. ) ;
#95 = CIRCLE ( 'NONE', #80, 1.113499999999995049 ) ;
#96 = EDGE_LOOP ( 'NONE', ( #278 ) ) ;
#97 = EDGE_CURVE ( 'NONE', #238, #238, #162, .T. ) ;
#98 = EDGE_LOOP ( 'NONE', ( #234 ) ) ;
#99 = ORIENTED_EDGE ( 'NONE', *, *, #97, .T. ) ;
#100 = DIRECTION ( 'NONE',  ( -4.275831445896958607E-31, -1.000000000000000000, -1.224646799147353207E-16 ) ) ;
#101 = DIRECTION ( 'NONE',  ( -3.491481338843133355E-15, 1.224646799147353207E-16, -1.000000000000000000 ) ) ;
#102 = ORIENTED_EDGE ( 'NONE', *, *, #110, .F. ) ;
#103 = VERTEX_POINT ( 'NONE', #85 ) ;
#104 = ADVANCED_FACE ( 'NONE', ( #245, #195 ), #84, .T. ) ;
#105 = APPROVAL_PERSON_ORGANIZATION ( #272, #7, #298 ) ;
#106 = CIRCLE ( 'NONE', #253, 1.499999999999996669 ) ;
#107 = DIRECTION ( 'NONE',  ( 4.275831445896958607E-31, 1.000000000000000000, 1.224646799147353207E-16 ) ) ;
#108 = CARTESIAN_POINT ( 'NONE',  ( 1.745740669421566678E-13, 1.199999999999995515, 50.00000000000000000 ) ) ;
#109 = LOCAL_TIME ( 7, 45, 7.000000000000000000, #232 ) ;
#110 = EDGE_CURVE ( 'NONE', #103, #103, #54, .T. ) ;
#111 = DIRECTION ( 'NONE',  ( -3.491481338843133355E-15, 1.224646799147353207E-16, -1.000000000000000000 ) ) ;
#112 = FACE_OUTER_BOUND ( 'NONE', #83, .T. ) ;
#113 = CONICAL_SURFACE ( 'NONE', #269, 1.499999999999996669, 0.1745329251994262587 ) ;
#114 = APPROVAL_ROLE ( '' ) ;
#115 = DIRECTION ( 'NONE',  ( -3.491481338843133355E-15, 1.224646799147353207E-16, -1.000000000000000000 ) ) ;
#116 = PRODUCT_DEFINITION_SHAPE ( 'NONE', 'NONE',  #142 ) ;
#117 = DIRECTION ( 'NONE',  ( -3.491481338843133355E-15, 1.224646799147353207E-16, -1.000000000000000000 ) ) ;
#118 = EDGE_LOOP ( 'NONE', ( #150 ) ) ;
#119 = DIRECTION ( 'NONE',  ( -3.491481338843133355E-15, 1.224646799147353207E-16, -1.000000000000000000 ) ) ;
#120 = PLANE ( 'NONE',  #257 ) ;
#121 = ORIENTED_EDGE ( 'NONE', *, *, #168, .F. ) ;
#122 = AXIS2_PLACEMENT_3D ( 'NONE', #186, #115, #107 ) ;
#123 = DIRECTION ( 'NONE',  ( 4.275831445896958607E-31, 1.000000000000000000, 1.224646799147353207E-16 ) ) ;
#124 = CYLINDRICAL_SURFACE ( 'NONE', #75, 0.9599999999999992983 ) ;
#125 = ORIENTED_EDGE ( 'NONE', *, *, #110, .T. ) ;
#126 = PERSON ( 'UNSPECIFIED', 'UNSPECIFIED', 'UNSPECIFIED', ('UNSPECIFIED'), ('UNSPECIFIED'), ('UNSPECIFIED') ) ;
#127 = CARTESIAN_POINT ( 'NONE',  ( 2.886013015238223984E-14, 0.9599999999999977440, 8.265869798961821502 ) ) ;
#128 = ADVANCED_FACE ( 'NONE', ( #33, #40 ), #299, .T. ) ;
#129 = AXIS2_PLACEMENT_3D ( 'NONE', #199, #300, #219 ) ;
#130 = PLANE ( 'NONE',  #220 ) ;
#131 = DESIGN_CONTEXT ( 'detailed design', #9, 'design' ) ;
#132 = DIRECTION ( 'NONE',  ( -4.275831445896958607E-31, -1.000000000000000000, -1.224646799147353207E-16 ) ) ;
#133 = VERTEX_POINT ( 'NONE', #108 ) ;
#134 = ADVANCED_FACE ( 'NONE', ( #182 ), #58, .F. ) ;
#135 = DIRECTION ( 'NONE',  ( -3.491481338843133355E-15, 1.224646799147353207E-16, -1.000000000000000000 ) ) ;
#136 = CARTESIAN_POINT ( 'NONE',  ( 8.728703347107831416E-16, 1.113499999999994161, 0.2500000000000000000 ) ) ;
#137 = DIRECTION ( 'NONE',  ( 4.275831445896958607E-31, 1.000000000000000000, 1.224646799147353454E-16 ) ) ;
#138 = AXIS2_PLACEMENT_3D ( 'NONE', #224, #193, #78 ) ;
#139 = CARTESIAN_POINT ( 'NONE',  ( 2.793185071074506684E-14, -9.797174393178825657E-16, 8.000000000000000000 ) ) ;
#140 = DIRECTION ( 'NONE',  ( 3.491481338843133355E-15, -1.224646799147353207E-16, 1.000000000000000000 ) ) ;
#141 = DIRECTION ( 'NONE',  ( -3.491481338843133355E-15, 1.224646799147353207E-16, -1.000000000000000000 ) ) ;
#142 = PRODUCT_DEFINITION ( 'UNKNOWN', '', #233, #131 ) ;
#143 = DIRECTION ( 'NONE',  ( -3.491481338843133355E-15, 1.224646799147353207E-16, -1.000000000000000000 ) ) ;
#144 = DATE_AND_TIME ( #203, #44 ) ;
#145 = CARTESIAN_POINT ( 'NONE',  ( 2.886013015238223984E-14, -1.012277099146736966E-15, 8.265869798961821502 ) ) ;
#146 = CALENDAR_DATE ( 2021, 30, 11 ) ;
#147 = APPROVAL ( #252, 'UNSPECIFIED' ) ;
#148 = ORIENTED_EDGE ( 'NONE', *, *, #174, .F. ) ;
#149 = AXIS2_PLACEMENT_3D ( 'NONE', #16, #111, #287 ) ;
#150 = ORIENTED_EDGE ( 'NONE', *, *, #280, .F. ) ;
#151 = CC_DESIGN_PERSON_AND_ORGANIZATION_ASSIGNMENT ( #38, #45, ( #293 ) ) ;
#152 = CARTESIAN_POINT ( 'NONE',  ( 2.793185071074506684E-14, 8.349912589969840422E-33, 8.000000000000000000 ) ) ;
#153 = FACE_OUTER_BOUND ( 'NONE', #96, .T. ) ;
#154 = ORIENTED_EDGE ( 'NONE', *, *, #239, .F. ) ;
#155 = DIRECTION ( 'NONE',  ( 4.275831445896957731E-31, 1.000000000000000000, 1.224646799147352961E-16 ) ) ;
#156 = EDGE_CURVE ( 'NONE', #64, #64, #86, .T. ) ;
#157 = APPROVAL_DATE_TIME ( #31, #147 ) ;
#158 = FACE_OUTER_BOUND ( 'NONE', #283, .T. ) ;
#159 = DIRECTION ( 'NONE',  ( -3.491481338843133355E-15, 1.224646799147353207E-16, -1.000000000000000000 ) ) ;
#160 =( NAMED_UNIT ( * ) PLANE_ANGLE_UNIT ( ) SI_UNIT ( $, .RADIAN. ) );
#161 = EDGE_CURVE ( 'NONE', #262, #262, #106, .T. ) ;
#162 = CIRCLE ( 'NONE', #138, 0.9599999999999987432 ) ;
#163 = DATE_TIME_ROLE ( 'creation_date' ) ;
#164 = PERSON_AND_ORGANIZATION_ROLE ( 'design_supplier' ) ;
#165 = EDGE_CURVE ( 'NONE', #81, #81, #212, .T. ) ;
#166 = PERSON_AND_ORGANIZATION ( #126, #241 ) ;
#167 = EDGE_LOOP ( 'NONE', ( #72 ) ) ;
#168 = EDGE_CURVE ( 'NONE', #14, #14, #263, .T. ) ;
#169 = ORIENTED_EDGE ( 'NONE', *, *, #97, .F. ) ;
#170 = DIRECTION ( 'NONE',  ( 0.0000000000000000000, 1.000000000000000000, 0.0000000000000000000 ) ) ;
#171 = ORIENTED_EDGE ( 'NONE', *, *, #174, .T. ) ;
#172 = PERSON_AND_ORGANIZATION ( #126, #241 ) ;
#173 = AXIS2_PLACEMENT_3D ( 'NONE', #28, #4, #123 ) ;
#174 = EDGE_CURVE ( 'NONE', #36, #36, #95, .T. ) ;
#175 = FACE_OUTER_BOUND ( 'NONE', #200, .T. ) ;
#176 = APPROVAL ( #230, 'UNSPECIFIED' ) ;
#177 = CIRCLE ( 'NONE', #198, 1.500000000000001554 ) ;
#178 = VERTEX_POINT ( 'NONE', #209 ) ;
#179 = FACE_BOUND ( 'NONE', #118, .T. ) ;
#180 = DIRECTION ( 'NONE',  ( -3.491481338843133355E-15, 1.224646799147353207E-16, -1.000000000000000000 ) ) ;
#181 = DATE_AND_TIME ( #146, #109 ) ;
#182 = FACE_OUTER_BOUND ( 'NONE', #290, .T. ) ;
#183 =( GEOMETRIC_REPRESENTATION_CONTEXT ( 3 ) GLOBAL_UNCERTAINTY_ASSIGNED_CONTEXT ( ( #242 ) ) GLOBAL_UNIT_ASSIGNED_CONTEXT ( ( #273, #160, #254 ) ) REPRESENTATION_CONTEXT ( 'NONE', 'WORKASPACE' ) );
#184 = CARTESIAN_POINT ( 'NONE',  ( 2.793185071074506684E-14, -9.797174393178825657E-16, 8.000000000000000000 ) ) ;
#185 = SHAPE_DEFINITION_REPRESENTATION ( #116, #46 ) ;
#186 = CARTESIAN_POINT ( 'NONE',  ( 6.284666409917640040E-14, -2.168404344971008868E-15, 18.00000000000000000 ) ) ;
#187 = COORDINATED_UNIVERSAL_TIME_OFFSET ( 1, 0, .AHEAD. ) ;
#188 = CONICAL_SURFACE ( 'NONE', #23, 0.9599999999999987432, 0.5235987755982922653 ) ;
#189 = ADVANCED_FACE ( 'NONE', ( #18, #112 ), #190, .T. ) ;
#190 = CONICAL_SURFACE ( 'NONE', #129, 1.113499999999994161, 0.5235987755982924874 ) ;
#191 = CIRCLE ( 'NONE', #77, 1.200000000000001732 ) ;
#192 = EDGE_LOOP ( 'NONE', ( #102 ) ) ;
#193 = DIRECTION ( 'NONE',  ( -3.491481338843133355E-15, 1.224646799147353207E-16, -1.000000000000000000 ) ) ;
#194 = AXIS2_PLACEMENT_3D ( 'NONE', #139, #141, #297 ) ;
#195 = FACE_OUTER_BOUND ( 'NONE', #207, .T. ) ;
#196 = ORIENTED_EDGE ( 'NONE', *, *, #156, .F. ) ;
#197 = DATE_AND_TIME ( #87, #235 ) ;
#198 = AXIS2_PLACEMENT_3D ( 'NONE', #247, #20, #292 ) ;
#199 = CARTESIAN_POINT ( 'NONE',  ( 8.728703347107827472E-16, -3.061616997868381169E-17, 0.2499999999999998335 ) ) ;
#200 = EDGE_LOOP ( 'NONE', ( #171 ) ) ;
#201 = DIRECTION ( 'NONE',  ( -3.491481338843133355E-15, 1.224646799147353207E-16, -1.000000000000000000 ) ) ;
#202 = DIRECTION ( 'NONE',  ( 3.491481338843133355E-15, -1.224646799147353207E-16, 1.000000000000000000 ) ) ;
#203 = CALENDAR_DATE ( 2021, 30, 11 ) ;
#204 = APPROVAL_PERSON_ORGANIZATION ( #295, #176, #114 ) ;
#205 = PERSON_AND_ORGANIZATION ( #126, #241 ) ;
#206 = AXIS2_PLACEMENT_3D ( 'NONE', #266, #37, #246 ) ;
#207 = EDGE_LOOP ( 'NONE', ( #210 ) ) ;
#208 = EDGE_LOOP ( 'NONE', ( #236 ) ) ;
#209 = CARTESIAN_POINT ( 'NONE',  ( 1.735266225405037467E-13, 1.499999999999995559, 49.70000000000000284 ) ) ;
#210 = ORIENTED_EDGE ( 'NONE', *, *, #239, .T. ) ;
#211 = ORIENTED_EDGE ( 'NONE', *, *, #165, .T. ) ;
#212 = CIRCLE ( 'NONE', #206, 1.113499999999994161 ) ;
#213 = APPLICATION_PROTOCOL_DEFINITION ( 'international standard', 'config_control_design', 1994, #9 ) ;
#214 = EDGE_CURVE ( 'NONE', #133, #133, #191, .T. ) ;
#215 = ORIENTED_EDGE ( 'NONE', *, *, #161, .T. ) ;
#216 = PERSON_AND_ORGANIZATION_ROLE ( 'creator' ) ;
#217 = CARTESIAN_POINT ( 'NONE',  ( 0.0000000000000000000, 0.0000000000000000000, 0.0000000000000000000 ) ) ;
#218 = CALENDAR_DATE ( 2021, 30, 11 ) ;
#219 = DIRECTION ( 'NONE',  ( -3.459236541333176251E-31, -1.000000000000000000, -1.460532787362609057E-16 ) ) ;
#220 = AXIS2_PLACEMENT_3D ( 'NONE', #41, #301, #274 ) ;
#221 = LOCAL_TIME ( 7, 45, 7.000000000000000000, #244 ) ;
#222 = CARTESIAN_POINT ( 'NONE',  ( 2.793185071074506684E-14, 8.349912589969840422E-33, 8.000000000000000000 ) ) ;
#223 = FACE_OUTER_BOUND ( 'NONE', #282, .T. ) ;
#224 = CARTESIAN_POINT ( 'NONE',  ( 2.886013015238223984E-14, -1.012277099146736966E-15, 8.265869798961821502 ) ) ;
#225 = DIRECTION ( 'NONE',  ( 0.0000000000000000000, 1.000000000000000000, 0.0000000000000000000 ) ) ;
#226 = APPLICATION_PROTOCOL_DEFINITION ( 'international standard', 'config_control_design', 1994, #35 ) ;
#227 = CC_DESIGN_PERSON_AND_ORGANIZATION_ASSIGNMENT ( #166, #164, ( #233 ) ) ;
#228 = AXIS2_PLACEMENT_3D ( 'NONE', #265, #135, #60 ) ;
#229 = DIRECTION ( 'NONE',  ( 0.0000000000000000000, 1.000000000000000000, 0.0000000000000000000 ) ) ;
#230 = APPROVAL_STATUS ( 'not_yet_approved' ) ;
#231 = CARTESIAN_POINT ( 'NONE',  ( 6.405924284287273902E-14, 0.9903844939755782617, 18.34729635533384240 ) ) ;
#232 = COORDINATED_UNIVERSAL_TIME_OFFSET ( 1, 0, .AHEAD. ) ;
#233 = PRODUCT_DEFINITION_FORMATION_WITH_SPECIFIED_SOURCE ( 'ANY', '', #303, .NOT_KNOWN. ) ;
#234 = ORIENTED_EDGE ( 'NONE', *, *, #165, .F. ) ;
#235 = LOCAL_TIME ( 7, 45, 7.000000000000000000, #187 ) ;
#236 = ORIENTED_EDGE ( 'NONE', *, *, #214, .F. ) ;
#237 = CC_DESIGN_APPROVAL ( #147, ( #142 ) ) ;
#238 = VERTEX_POINT ( 'NONE', #127 ) ;
#239 = EDGE_CURVE ( 'NONE', #178, #178, #177, .T. ) ;
#240 = DIRECTION ( 'NONE',  ( -3.491481338843133355E-15, 1.224646799147353207E-16, -1.000000000000000000 ) ) ;
#241 = ORGANIZATION ( 'UNSPECIFIED', 'UNSPECIFIED', '' ) ;
#242 = UNCERTAINTY_MEASURE_WITH_UNIT (LENGTH_MEASURE( 1.000000000000000082E-05 ), #273, 'distance_accuracy_value', 'NONE');
#243 = CARTESIAN_POINT ( 'NONE',  ( 6.284666409917640040E-14, 0.9599999999999977440, 18.00000000000000000 ) ) ;
#244 = COORDINATED_UNIVERSAL_TIME_OFFSET ( 1, 0, .AHEAD. ) ;
#245 = FACE_OUTER_BOUND ( 'NONE', #10, .T. ) ;
#246 = DIRECTION ( 'NONE',  ( 3.459236541333176251E-31, 1.000000000000000000, 1.460532787362609057E-16 ) ) ;
#247 = CARTESIAN_POINT ( 'NONE',  ( 1.735266225405037467E-13, -6.086494591762345225E-15, 49.70000000000000284 ) ) ;
#248 = ADVANCED_FACE ( 'NONE', ( #179, #276 ), #113, .T. ) ;
#249 = APPROVAL_STATUS ( 'not_yet_approved' ) ;
#250 = FACE_OUTER_BOUND ( 'NONE', #73, .T. ) ;
#251 = AXIS2_PLACEMENT_3D ( 'NONE', #222, #140, #132 ) ;
#252 = APPROVAL_STATUS ( 'not_yet_approved' ) ;
#253 = AXIS2_PLACEMENT_3D ( 'NONE', #270, #117, #170 ) ;
#254 =( NAMED_UNIT ( * ) SI_UNIT ( $, .STERADIAN. ) SOLID_ANGLE_UNIT ( ) );
#255 = PRODUCT_RELATED_PRODUCT_CATEGORY ( 'detail', '', ( #303 ) ) ;
#256 = DIRECTION ( 'NONE',  ( 4.275831445896958607E-31, 1.000000000000000000, 1.224646799147353207E-16 ) ) ;
#257 = AXIS2_PLACEMENT_3D ( 'NONE', #152, #27, #100 ) ;
#258 = MANIFOLD_SOLID_BREP ( 'Corps-Déplacer/Copier1[1]', #275 ) ;
#259 = ADVANCED_FACE ( 'NONE', ( #158, #223 ), #39, .F. ) ;
#260 = CARTESIAN_POINT ( 'NONE',  ( 6.405924284287273902E-14, -2.246895775456748746E-15, 18.34729635533384240 ) ) ;
#261 = MANIFOLD_SOLID_BREP ( 'Corps-Déplacer/Copier1[2]', #291 ) ;
#262 = VERTEX_POINT ( 'NONE', #34 ) ;
#263 = CIRCLE ( 'NONE', #194, 1.113499999999995049 ) ;
#264 = CARTESIAN_POINT ( 'NONE',  ( 0.0000000000000000000, 0.0000000000000000000, 0.0000000000000000000 ) ) ;
#265 = CARTESIAN_POINT ( 'NONE',  ( 0.0000000000000000000, 0.0000000000000000000, 0.0000000000000000000 ) ) ;
#266 = CARTESIAN_POINT ( 'NONE',  ( 8.728703347107827472E-16, -3.061616997868381169E-17, 0.2499999999999998335 ) ) ;
#267 = CALENDAR_DATE ( 2021, 30, 11 ) ;
#268 = MECHANICAL_CONTEXT ( 'NONE', #35, 'mechanical' ) ;
#269 = AXIS2_PLACEMENT_3D ( 'NONE', #70, #202, #277 ) ;
#270 = CARTESIAN_POINT ( 'NONE',  ( 7.415022847717731821E-14, -2.600839905697687411E-15, 21.23746950964550351 ) ) ;
#271 = ADVANCED_FACE ( 'NONE', ( #92, #175 ), #74, .T. ) ;
#272 = PERSON_AND_ORGANIZATION ( #126, #241 ) ;
#273 =( LENGTH_UNIT ( ) NAMED_UNIT ( * ) SI_UNIT ( .MILLI., .METRE. ) );
#274 = DIRECTION ( 'NONE',  ( -4.275831445896958607E-31, -1.000000000000000000, -1.224646799147353207E-16 ) ) ;
#275 = CLOSED_SHELL ( 'NONE', ( #134, #30, #296, #259, #248, #104, #128, #47 ) ) ;
#276 = FACE_OUTER_BOUND ( 'NONE', #29, .T. ) ;
#277 = DIRECTION ( 'NONE',  ( 0.0000000000000000000, -1.000000000000000000, 0.0000000000000000000 ) ) ;
#278 = ORIENTED_EDGE ( 'NONE', *, *, #156, .T. ) ;
#279 = AXIS2_PLACEMENT_3D ( 'NONE', #42, #159, #137 ) ;
#280 = EDGE_CURVE ( 'NONE', #88, #88, #285, .T. ) ;
#281 = EDGE_LOOP ( 'NONE', ( #125 ) ) ;
#282 = EDGE_LOOP ( 'NONE', ( #52 ) ) ;
#283 = EDGE_LOOP ( 'NONE', ( #196 ) ) ;
#284 = CC_DESIGN_SECURITY_CLASSIFICATION ( #293, ( #233 ) ) ;
#285 = CIRCLE ( 'NONE', #59, 0.9903844939755804822 ) ;
#286 = FACE_OUTER_BOUND ( 'NONE', #6, .T. ) ;
#287 = DIRECTION ( 'NONE',  ( 0.0000000000000000000, 1.000000000000000000, 0.0000000000000000000 ) ) ;
#288 = DIRECTION ( 'NONE',  ( 0.0000000000000000000, 1.000000000000000000, 0.0000000000000000000 ) ) ;
#289 = CARTESIAN_POINT ( 'NONE',  ( 2.793185071074506684E-14, 1.113499999999994161, 8.000000000000000000 ) ) ;
#290 = EDGE_LOOP ( 'NONE', ( #8 ) ) ;
#291 = CLOSED_SHELL ( 'NONE', ( #71, #189, #271, #66 ) ) ;
#292 = DIRECTION ( 'NONE',  ( 0.0000000000000000000, 1.000000000000000000, 0.0000000000000000000 ) ) ;
#293 = SECURITY_CLASSIFICATION ( '', '', #91 ) ;
#294 = CARTESIAN_POINT ( 'NONE',  ( 6.284666409917640040E-14, -2.204364238465235428E-15, 18.00000000000000000 ) ) ;
#295 = PERSON_AND_ORGANIZATION ( #126, #241 ) ;
#296 = ADVANCED_FACE ( 'NONE', ( #286, #153 ), #124, .T. ) ;
#297 = DIRECTION ( 'NONE',  ( 0.0000000000000000000, 1.000000000000000000, 0.0000000000000000000 ) ) ;
#298 = APPROVAL_ROLE ( '' ) ;
#299 = CONICAL_SURFACE ( 'NONE', #149, 1.200000000000001732, 0.7853981633974453924 ) ;
#300 = DIRECTION ( 'NONE',  ( 3.491481338843133355E-15, -1.224646799147353207E-16, 1.000000000000000000 ) ) ;
#301 = DIRECTION ( 'NONE',  ( 3.491481338843133355E-15, -1.224646799147353207E-16, 1.000000000000000000 ) ) ;
#302 = DIRECTION ( 'NONE',  ( 0.0000000000000000000, 1.000000000000000000, 0.0000000000000000000 ) ) ;
#303 = PRODUCT ( '953362', '953362', '', ( #268 ) ) ;
ENDSEC;
END-ISO-10303-21;
