ISO-10303-21;
HEADER;
FILE_DESCRIPTION (( 'STEP AP203' ),
    '1' );
FILE_NAME ('953225.step',
    '2023-09-27T05:49:07',
    ( '' ),
    ( '' ),
    'SwSTEP 2.0',
    'SolidWorks 2022',
    '' );
FILE_SCHEMA (( 'CONFIG_CONTROL_DESIGN' ));
ENDSEC;

DATA;
#1 = VERTEX_POINT ( 'NONE', #107 ) ;
#2 = CARTESIAN_POINT ( 'NONE',  ( 8.510485763430169108E-16, 0.000000000000000000, 0.2437500000000009104 ) ) ;
#3 = CC_DESIGN_APPROVAL ( #162, ( #199 ) ) ;
#4 = VERTEX_POINT ( 'NONE', #126 ) ;
#5 = VERTEX_POINT ( 'NONE', #274 ) ;
#6 = CIRCLE ( 'NONE', #151, 0.6299999999999994493 ) ;
#7 = CYLINDRICAL_SURFACE ( 'NONE', #347, 1.499999999999998224 ) ;
#8 = PERSON_AND_ORGANIZATION_ROLE ( 'creator' ) ;
#9 = SECURITY_CLASSIFICATION ( '', '', #255 ) ;
#10 = DIRECTION ( 'NONE',  ( -3.491481338843133355E-15, 0.000000000000000000, -1.000000000000000000 ) ) ;
#11 = ORIENTED_EDGE ( 'NONE', *, *, #70, .T. ) ;
#12 = DIRECTION ( 'NONE',  ( 1.000000000000000000, 0.000000000000000000, -3.438625486688989902E-15 ) ) ;
#13 = EDGE_LOOP ( 'NONE', ( #74 ) ) ;
#14 = EDGE_CURVE ( 'NONE', #141, #141, #166, .T. ) ;
#15 = CARTESIAN_POINT ( 'NONE',  ( 1.316288464743861212E-13, 0.000000000000000000, 37.69999999999999574 ) ) ;
#16 = AXIS2_PLACEMENT_3D ( 'NONE', #69, #251, #285 ) ;
#17 = DIRECTION ( 'NONE',  ( 3.491481338843133355E-15, -0.000000000000000000, 1.000000000000000000 ) ) ;
#18 = APPROVAL_PERSON_ORGANIZATION ( #195, #369, #287 ) ;
#19 = CARTESIAN_POINT ( 'NONE',  ( 1.374770777169477842E-15, 0.000000000000000000, 0.3937499999999982681 ) ) ;
#20 = CARTESIAN_POINT ( 'NONE',  ( 1.500000000000127898, 0.000000000000000000, 37.69999999999998863 ) ) ;
#21 = CARTESIAN_POINT ( 'NONE',  ( 1.326762908760390423E-13, 0.000000000000000000, 38.00000000000000000 ) ) ;
#22 = CYLINDRICAL_SURFACE ( 'NONE', #262, 0.9849999999999999867 ) ;
#23 = ORIENTED_EDGE ( 'NONE', *, *, #282, .F. ) ;
#24 = ADVANCED_FACE ( 'NONE', ( #390, #175 ), #124, .T. ) ;
#25 = DIRECTION ( 'NONE',  ( 1.000000000000000000, 0.000000000000000000, -3.438625486688990691E-15 ) ) ;
#26 = EDGE_LOOP ( 'NONE', ( #351 ) ) ;
#27 = EDGE_CURVE ( 'NONE', #388, #388, #49, .T. ) ;
#28 = VERTEX_POINT ( 'NONE', #366 ) ;
#29 = CONICAL_SURFACE ( 'NONE', #300, 0.9849999999999997646, 1.047197551196608289 ) ;
#30 = CARTESIAN_POINT ( 'NONE',  ( 1.326762908760390423E-13, 0.000000000000000000, 38.00000000000000000 ) ) ;
#31 = ADVANCED_FACE ( 'NONE', ( #240, #320 ), #355, .T. ) ;
#32 = ADVANCED_FACE ( 'NONE', ( #42, #178 ), #295, .T. ) ;
#33 = CALENDAR_DATE ( 2023, 27, 9 ) ;
#34 = TOROIDAL_SURFACE ( 'NONE', #368, 1.629999999999999227, 0.9999999999999995559 ) ;
#35 = FACE_OUTER_BOUND ( 'NONE', #13, .T. ) ;
#36 = ADVANCED_FACE ( 'NONE', ( #121, #364 ), #334, .T. ) ;
#37 = DIRECTION ( 'NONE',  ( 1.000000000000000000, 0.000000000000000000, -3.522281169496055835E-15 ) ) ;
#38 = DIRECTION ( 'NONE',  ( 1.000000000000000000, 0.000000000000000000, 0.000000000000000000 ) ) ;
#39 = ORIENTED_EDGE ( 'NONE', *, *, #204, .T. ) ;
#40 = AXIS2_PLACEMENT_3D ( 'NONE', #352, #174, #354 ) ;
#41 = PLANE ( 'NONE',  #224 ) ;
#42 = FACE_OUTER_BOUND ( 'NONE', #292, .T. ) ;
#43 = DIRECTION ( 'NONE',  ( 1.000000000000000000, 0.000000000000000000, -4.130293990420972841E-15 ) ) ;
#44 = ADVANCED_FACE ( 'NONE', ( #191, #158 ), #218, .T. ) ;
#45 =( NAMED_UNIT ( * ) SI_UNIT ( $, .STERADIAN. ) SOLID_ANGLE_UNIT ( ) );
#46 = EDGE_LOOP ( 'NONE', ( #117 ) ) ;
#47 = DIRECTION ( 'NONE',  ( 1.000000000000000000, 0.000000000000000000, 0.000000000000000000 ) ) ;
#48 = DIRECTION ( 'NONE',  ( 3.491481338843133355E-15, -0.000000000000000000, 1.000000000000000000 ) ) ;
#49 = CIRCLE ( 'NONE', #322, 0.7251923788646664759 ) ;
#50 = CIRCLE ( 'NONE', #131, 0.7251923788646663649 ) ;
#51 = EDGE_LOOP ( 'NONE', ( #182 ) ) ;
#52 = MECHANICAL_CONTEXT ( 'NONE', #110, 'mechanical' ) ;
#53 = ADVANCED_FACE ( 'NONE', ( #90, #160 ), #363, .T. ) ;
#54 = CARTESIAN_POINT ( 'NONE',  ( 0.6300000000000032241, 0.000000000000000000, 0.8999999999999958034 ) ) ;
#55 = CC_DESIGN_DATE_AND_TIME_ASSIGNMENT ( #313, #167, ( #9 ) ) ;
#56 = CIRCLE ( 'NONE', #219, 0.7251923788646664759 ) ;
#57 = DIRECTION ( 'NONE',  ( 1.000000000000000000, 0.000000000000000000, -3.494763347859366968E-15 ) ) ;
#58 =( GEOMETRIC_REPRESENTATION_CONTEXT ( 3 ) GLOBAL_UNCERTAINTY_ASSIGNED_CONTEXT ( ( #331 ) ) GLOBAL_UNIT_ASSIGNED_CONTEXT ( ( #281, #277, #45 ) ) REPRESENTATION_CONTEXT ( 'NONE', 'WORKASPACE' ) );
#59 = EDGE_CURVE ( 'NONE', #1, #1, #385, .T. ) ;
#60 = DIRECTION ( 'NONE',  ( 3.491481338843133355E-15, -0.000000000000000000, 1.000000000000000000 ) ) ;
#61 = DATE_AND_TIME ( #33, #357 ) ;
#62 = DIRECTION ( 'NONE',  ( 1.000000000000000000, 0.000000000000000000, -4.625929269271490844E-15 ) ) ;
#63 = APPLICATION_PROTOCOL_DEFINITION ( 'international standard', 'config_control_design', 1994, #173 ) ;
#64 = DATE_TIME_ROLE ( 'creation_date' ) ;
#65 = CARTESIAN_POINT ( 'NONE',  ( 2.291284628615796404E-15, 0.000000000000000000, 0.6562499999999971134 ) ) ;
#66 = CONICAL_SURFACE ( 'NONE', #16, 0.6640741737109292497, 0.2617993877991424134 ) ;
#67 = SHAPE_DEFINITION_REPRESENTATION ( #136, #119 ) ;
#68 = LOCAL_TIME ( 7, 49, 7.000000000000000000, #337 ) ;
#69 = CARTESIAN_POINT ( 'NONE',  ( 2.115425363140279297E-14, 0.000000000000000000, 6.058819045102511680 ) ) ;
#70 = EDGE_CURVE ( 'NONE', #214, #214, #193, .T. ) ;
#71 = VERTEX_POINT ( 'NONE', #265 ) ;
#72 = EDGE_LOOP ( 'NONE', ( #257 ) ) ;
#73 = VERTEX_POINT ( 'NONE', #207 ) ;
#74 = ORIENTED_EDGE ( 'NONE', *, *, #282, .T. ) ;
#75 = CLOSED_SHELL ( 'NONE', ( #389, #24, #365, #31, #32, #53, #36, #114, #44, #336, #377, #301, #89, #227, #309, #196 ) ) ;
#76 = APPROVAL_PERSON_ORGANIZATION ( #258, #146, #250 ) ;
#77 = DIRECTION ( 'NONE',  ( 3.491481338843133355E-15, -0.000000000000000000, 1.000000000000000000 ) ) ;
#78 = DIRECTION ( 'NONE',  ( 1.000000000000000000, 0.000000000000000000, 0.000000000000000000 ) ) ;
#79 = DIRECTION ( 'NONE',  ( 1.000000000000000000, 0.000000000000000000, -3.491481338843132961E-15 ) ) ;
#80 = EDGE_LOOP ( 'NONE', ( #264 ) ) ;
#81 = FACE_BOUND ( 'NONE', #82, .T. ) ;
#82 = EDGE_LOOP ( 'NONE', ( #372 ) ) ;
#83 = AXIS2_PLACEMENT_3D ( 'NONE', #208, #213, #362 ) ;
#84 = AXIS2_PLACEMENT_3D ( 'NONE', #291, #325, #47 ) ;
#85 = CARTESIAN_POINT ( 'NONE',  ( 0.6300000000000197664, 0.000000000000000000, 5.799999999999997158 ) ) ;
#86 = AXIS2_PLACEMENT_3D ( 'NONE', #210, #112, #79 ) ;
#87 = VERTEX_POINT ( 'NONE', #54 ) ;
#88 = AXIS2_PLACEMENT_3D ( 'NONE', #192, #99, #340 ) ;
#89 = ADVANCED_FACE ( 'NONE', ( #129, #370 ), #66, .T. ) ;
#90 = FACE_OUTER_BOUND ( 'NONE', #149, .T. ) ;
#91 = PERSON ( 'UNSPECIFIED', 'UNSPECIFIED', 'UNSPECIFIED', ('UNSPECIFIED'), ('UNSPECIFIED'), ('UNSPECIFIED') ) ;
#92 = FACE_BOUND ( 'NONE', #26, .T. ) ;
#93 = ORIENTED_EDGE ( 'NONE', *, *, #59, .F. ) ;
#94 = AXIS2_PLACEMENT_3D ( 'NONE', #168, #371, #382 ) ;
#95 = CALENDAR_DATE ( 2023, 27, 9 ) ;
#96 = DIRECTION ( 'NONE',  ( 3.491481338843133355E-15, -0.000000000000000000, 1.000000000000000000 ) ) ;
#97 = ORIENTED_EDGE ( 'NONE', *, *, #305, .F. ) ;
#98 = PERSON_AND_ORGANIZATION_ROLE ( 'classification_officer' ) ;
#99 = DIRECTION ( 'NONE',  ( -3.491481338843133355E-15, 0.000000000000000000, -1.000000000000000000 ) ) ;
#100 = APPROVAL_DATE_TIME ( #318, #162 ) ;
#101 = EDGE_CURVE ( 'NONE', #71, #71, #324, .T. ) ;
#102 = DIRECTION ( 'NONE',  ( 1.000000000000000000, 0.000000000000000000, -3.494763347859366968E-15 ) ) ;
#103 = EDGE_LOOP ( 'NONE', ( #252 ) ) ;
#104 = FACE_OUTER_BOUND ( 'NONE', #169, .T. ) ;
#105 = ORIENTED_EDGE ( 'NONE', *, *, #59, .T. ) ;
#106 = PERSON_AND_ORGANIZATION ( #91, #120 ) ;
#107 = CARTESIAN_POINT ( 'NONE',  ( 0.9850000000000020961, 0.000000000000000000, 0.6562499999999936717 ) ) ;
#108 = DIRECTION ( 'NONE',  ( -1.000000000000000000, 0.000000000000000000, 3.491481338843133355E-15 ) ) ;
#109 = ORIENTED_EDGE ( 'NONE', *, *, #27, .T. ) ;
#110 = APPLICATION_CONTEXT ( 'configuration controlled 3d designs of mechanical parts and assemblies' ) ;
#111 = CIRCLE ( 'NONE', #316, 1.199999999999993516 ) ;
#112 = DIRECTION ( 'NONE',  ( 3.491481338843133355E-15, -0.000000000000000000, 1.000000000000000000 ) ) ;
#113 = ORIENTED_EDGE ( 'NONE', *, *, #155, .F. ) ;
#114 = ADVANCED_FACE ( 'NONE', ( #92, #35 ), #29, .T. ) ;
#115 = VERTEX_POINT ( 'NONE', #145 ) ;
#116 = APPLICATION_PROTOCOL_DEFINITION ( 'international standard', 'config_control_design', 1994, #110 ) ;
#117 = ORIENTED_EDGE ( 'NONE', *, *, #14, .T. ) ;
#118 = EDGE_CURVE ( 'NONE', #73, #73, #157, .T. ) ;
#119 = ADVANCED_BREP_SHAPE_REPRESENTATION ( '953225', ( #307, #286 ), #58 ) ;
#120 = ORGANIZATION ( 'UNSPECIFIED', 'UNSPECIFIED', '' ) ;
#121 = FACE_OUTER_BOUND ( 'NONE', #147, .T. ) ;
#122 = VERTEX_POINT ( 'NONE', #276 ) ;
#123 = PRODUCT_RELATED_PRODUCT_CATEGORY ( 'detail', '', ( #238 ) ) ;
#124 = CONICAL_SURFACE ( 'NONE', #233, 0.6277645209389173253, 1.047197551196603849 ) ;
#125 = AXIS2_PLACEMENT_3D ( 'NONE', #222, #128, #200 ) ;
#126 = CARTESIAN_POINT ( 'NONE',  ( 0.6277645209389173253, 0.000000000000000000, -2.191828110046029152E-15 ) ) ;
#127 = CALENDAR_DATE ( 2023, 27, 9 ) ;
#128 = DIRECTION ( 'NONE',  ( 3.491481338843133355E-15, -0.000000000000000000, 1.000000000000000000 ) ) ;
#129 = FACE_OUTER_BOUND ( 'NONE', #103, .T. ) ;
#130 = DIRECTION ( 'NONE',  ( 1.000000000000000000, 0.000000000000000000, -3.522281169496055835E-15 ) ) ;
#131 = AXIS2_PLACEMENT_3D ( 'NONE', #263, #246, #25 ) ;
#132 = PERSON_AND_ORGANIZATION ( #91, #120 ) ;
#133 = DIRECTION ( 'NONE',  ( 3.491481338843133355E-15, -0.000000000000000000, 1.000000000000000000 ) ) ;
#134 = ORIENTED_EDGE ( 'NONE', *, *, #142, .T. ) ;
#135 = EDGE_CURVE ( 'NONE', #177, #177, #374, .T. ) ;
#136 = PRODUCT_DEFINITION_SHAPE ( 'NONE', 'NONE',  #199 ) ;
#137 = COORDINATED_UNIVERSAL_TIME_OFFSET ( 1, 0, .AHEAD. ) ;
#138 = CARTESIAN_POINT ( 'NONE',  ( 7.201180261363896478E-16, 0.000000000000000000, 0.2062499999999981015 ) ) ;
#139 = PERSON_AND_ORGANIZATION ( #91, #120 ) ;
#140 = DIRECTION ( 'NONE',  ( -3.491481338843133355E-15, 0.000000000000000000, -1.000000000000000000 ) ) ;
#141 = VERTEX_POINT ( 'NONE', #181 ) ;
#142 = EDGE_CURVE ( 'NONE', #115, #115, #56, .T. ) ;
#143 = EDGE_LOOP ( 'NONE', ( #11 ) ) ;
#144 = CC_DESIGN_PERSON_AND_ORGANIZATION_ASSIGNMENT ( #139, #279, ( #238 ) ) ;
#145 = CARTESIAN_POINT ( 'NONE',  ( 0.7251923788646682523, 0.000000000000000000, 0.5062499999999973133 ) ) ;
#146 = APPROVAL ( #221, 'UNSPECIFIED' ) ;
#147 = EDGE_LOOP ( 'NONE', ( #23 ) ) ;
#148 = FACE_OUTER_BOUND ( 'NONE', #380, .T. ) ;
#149 = EDGE_LOOP ( 'NONE', ( #93 ) ) ;
#150 = CC_DESIGN_PERSON_AND_ORGANIZATION_ASSIGNMENT ( #378, #98, ( #9 ) ) ;
#151 = AXIS2_PLACEMENT_3D ( 'NONE', #268, #17, #43 ) ;
#152 = CC_DESIGN_APPROVAL ( #369, ( #9 ) ) ;
#153 = PLANE ( 'NONE',  #40 ) ;
#154 = DIRECTION ( 'NONE',  ( 1.000000000000000000, 0.000000000000000000, -3.491481338843132961E-15 ) ) ;
#155 = EDGE_CURVE ( 'NONE', #5, #5, #304, .T. ) ;
#156 = EDGE_LOOP ( 'NONE', ( #360 ) ) ;
#157 = CIRCLE ( 'NONE', #270, 0.9849999999999999867 ) ;
#158 = FACE_OUTER_BOUND ( 'NONE', #143, .T. ) ;
#159 = AXIS2_PLACEMENT_3D ( 'NONE', #216, #332, #186 ) ;
#160 = FACE_BOUND ( 'NONE', #394, .T. ) ;
#161 = AXIS2_PLACEMENT_3D ( 'NONE', #138, #375, #102 ) ;
#162 = APPROVAL ( #248, 'UNSPECIFIED' ) ;
#163 = DIRECTION ( 'NONE',  ( 3.491481338843133355E-15, -0.000000000000000000, 1.000000000000000000 ) ) ;
#164 = PERSON_AND_ORGANIZATION ( #91, #120 ) ;
#165 = DIRECTION ( 'NONE',  ( 1.000000000000000000, 0.000000000000000000, -3.438625486688989902E-15 ) ) ;
#166 = CIRCLE ( 'NONE', #83, 1.500000000000000000 ) ;
#167 = DATE_TIME_ROLE ( 'classification_date' ) ;
#168 = CARTESIAN_POINT ( 'NONE',  ( 2.115425363140279297E-14, 0.000000000000000000, 6.058819045102511680 ) ) ;
#169 = EDGE_LOOP ( 'NONE', ( #39 ) ) ;
#170 = DATE_AND_TIME ( #381, #68 ) ;
#171 = FACE_OUTER_BOUND ( 'NONE', #317, .T. ) ;
#172 = ORIENTED_EDGE ( 'NONE', *, *, #267, .F. ) ;
#173 = APPLICATION_CONTEXT ( 'configuration controlled 3d designs of mechanical parts and assemblies' ) ;
#174 = DIRECTION ( 'NONE',  ( 3.491481338843133355E-15, -0.000000000000000000, 1.000000000000000000 ) ) ;
#175 = FACE_BOUND ( 'NONE', #51, .T. ) ;
#176 = LOCAL_TIME ( 7, 49, 7.000000000000000000, #230 ) ;
#177 = VERTEX_POINT ( 'NONE', #20 ) ;
#178 = FACE_OUTER_BOUND ( 'NONE', #289, .T. ) ;
#179 = CARTESIAN_POINT ( 'NONE',  ( 2.025059176529017031E-14, 0.000000000000000000, 5.799999999999999822 ) ) ;
#180 = EDGE_LOOP ( 'NONE', ( #245 ) ) ;
#181 = CARTESIAN_POINT ( 'NONE',  ( 1.500000000000032196, 0.000000000000000000, 9.178536700172401197 ) ) ;
#182 = ORIENTED_EDGE ( 'NONE', *, *, #305, .T. ) ;
#183 = CARTESIAN_POINT ( 'NONE',  ( 0.000000000000000000, 0.000000000000000000, 0.000000000000000000 ) ) ;
#184 = AXIS2_PLACEMENT_3D ( 'NONE', #312, #288, #283 ) ;
#185 = DIRECTION ( 'NONE',  ( -3.491481338843133355E-15, 0.000000000000000000, -1.000000000000000000 ) ) ;
#186 = DIRECTION ( 'NONE',  ( 1.000000000000000000, 0.000000000000000000, 0.000000000000000000 ) ) ;
#187 = VERTEX_POINT ( 'NONE', #335 ) ;
#188 = AXIS2_PLACEMENT_3D ( 'NONE', #2, #185, #323 ) ;
#189 = CC_DESIGN_APPROVAL ( #146, ( #333 ) ) ;
#190 = APPROVAL_ROLE ( '' ) ;
#191 = FACE_OUTER_BOUND ( 'NONE', #237, .T. ) ;
#192 = CARTESIAN_POINT ( 'NONE',  ( 1.326762908760390423E-13, 1.199999999999993516, 38.00000000000000000 ) ) ;
#193 = CIRCLE ( 'NONE', #125, 0.7251923788646664759 ) ;
#194 = FACE_OUTER_BOUND ( 'NONE', #46, .T. ) ;
#195 = PERSON_AND_ORGANIZATION ( #91, #120 ) ;
#196 = ADVANCED_FACE ( 'NONE', ( #256 ), #379, .F. ) ;
#197 = CARTESIAN_POINT ( 'NONE',  ( 1.326762908760390423E-13, 0.000000000000000000, 38.00000000000000000 ) ) ;
#198 = PERSON_AND_ORGANIZATION ( #91, #120 ) ;
#199 = PRODUCT_DEFINITION ( 'UNKNOWN', '', #333, #306 ) ;
#200 = DIRECTION ( 'NONE',  ( 1.000000000000000000, 0.000000000000000000, -3.438625486688989902E-15 ) ) ;
#201 = AXIS2_PLACEMENT_3D ( 'NONE', #30, #367, #220 ) ;
#202 = CIRCLE ( 'NONE', #86, 0.6277645209389173253 ) ;
#203 = CARTESIAN_POINT ( 'NONE',  ( 8.510485763430169108E-16, 0.000000000000000000, 0.2437500000000009104 ) ) ;
#204 = EDGE_CURVE ( 'NONE', #87, #87, #395, .T. ) ;
#205 = DIRECTION ( 'NONE',  ( -3.491481338843133355E-15, 0.000000000000000000, -1.000000000000000000 ) ) ;
#206 = ORIENTED_EDGE ( 'NONE', *, *, #142, .F. ) ;
#207 = CARTESIAN_POINT ( 'NONE',  ( 0.9850000000000008749, 0.000000000000000000, 0.2437499999999974687 ) ) ;
#208 = CARTESIAN_POINT ( 'NONE',  ( 3.204668960653878854E-14, 0.000000000000000000, 9.178536700172406526 ) ) ;
#209 = AXIS2_PLACEMENT_3D ( 'NONE', #15, #205, #293 ) ;
#210 = CARTESIAN_POINT ( 'NONE',  ( 0.000000000000000000, 0.000000000000000000, 0.000000000000000000 ) ) ;
#211 = ORIENTED_EDGE ( 'NONE', *, *, #118, .T. ) ;
#212 = FACE_OUTER_BOUND ( 'NONE', #80, .T. ) ;
#213 = DIRECTION ( 'NONE',  ( 3.491481338843133355E-15, -0.000000000000000000, 1.000000000000000000 ) ) ;
#214 = VERTEX_POINT ( 'NONE', #350 ) ;
#215 = ORIENTED_EDGE ( 'NONE', *, *, #118, .F. ) ;
#216 = CARTESIAN_POINT ( 'NONE',  ( 1.326762908760390423E-13, 0.000000000000000000, 38.00000000000000000 ) ) ;
#217 = CC_DESIGN_PERSON_AND_ORGANIZATION_ASSIGNMENT ( #132, #373, ( #199 ) ) ;
#218 = CYLINDRICAL_SURFACE ( 'NONE', #159, 0.7251923788646663649 ) ;
#219 = AXIS2_PLACEMENT_3D ( 'NONE', #253, #133, #12 ) ;
#220 = DIRECTION ( 'NONE',  ( 1.000000000000000000, 0.000000000000000000, 0.000000000000000000 ) ) ;
#221 = APPROVAL_STATUS ( 'not_yet_approved' ) ;
#222 = CARTESIAN_POINT ( 'NONE',  ( 2.945937379648884302E-15, 0.000000000000000000, 0.8437499999999973355 ) ) ;
#223 = CARTESIAN_POINT ( 'NONE',  ( 2.422215178822423765E-15, 0.000000000000000000, 0.6937499999999998668 ) ) ;
#224 = AXIS2_PLACEMENT_3D ( 'NONE', #359, #140, #108 ) ;
#225 = CC_DESIGN_SECURITY_CLASSIFICATION ( #9, ( #333 ) ) ;
#226 = ORIENTED_EDGE ( 'NONE', *, *, #27, .F. ) ;
#227 = ADVANCED_FACE ( 'NONE', ( #348, #194 ), #7, .T. ) ;
#228 = COORDINATED_UNIVERSAL_TIME_OFFSET ( 1, 0, .AHEAD. ) ;
#229 = DIRECTION ( 'NONE',  ( 1.000000000000000000, 0.000000000000000000, -3.441911658684141010E-15 ) ) ;
#230 = COORDINATED_UNIVERSAL_TIME_OFFSET ( 1, 0, .AHEAD. ) ;
#231 = APPROVAL_STATUS ( 'not_yet_approved' ) ;
#232 = CARTESIAN_POINT ( 'NONE',  ( 3.142333204958813314E-15, 0.000000000000000000, 0.8999999999999980238 ) ) ;
#233 = AXIS2_PLACEMENT_3D ( 'NONE', #353, #48, #154 ) ;
#234 = EDGE_LOOP ( 'NONE', ( #211 ) ) ;
#235 = AXIS2_PLACEMENT_3D ( 'NONE', #65, #315, #130 ) ;
#236 = CYLINDRICAL_SURFACE ( 'NONE', #84, 0.6299999999999996714 ) ;
#237 = EDGE_LOOP ( 'NONE', ( #328 ) ) ;
#238 = PRODUCT ( '953225', '953225', '', ( #52 ) ) ;
#239 = FACE_OUTER_BOUND ( 'NONE', #341, .T. ) ;
#240 = FACE_BOUND ( 'NONE', #376, .T. ) ;
#241 = DIRECTION ( 'NONE',  ( 3.491481338843133355E-15, -0.000000000000000000, 1.000000000000000000 ) ) ;
#242 = EDGE_LOOP ( 'NONE', ( #326 ) ) ;
#243 = AXIS2_PLACEMENT_3D ( 'NONE', #296, #321, #37 ) ;
#244 = FACE_BOUND ( 'NONE', #349, .T. ) ;
#245 = ORIENTED_EDGE ( 'NONE', *, *, #294, .F. ) ;
#246 = DIRECTION ( 'NONE',  ( 3.491481338843133355E-15, -0.000000000000000000, 1.000000000000000000 ) ) ;
#247 = EDGE_LOOP ( 'NONE', ( #105 ) ) ;
#248 = APPROVAL_STATUS ( 'not_yet_approved' ) ;
#249 = CONICAL_SURFACE ( 'NONE', #209, 1.499999999999996447, 0.7853981633974501664 ) ;
#250 = APPROVAL_ROLE ( '' ) ;
#251 = DIRECTION ( 'NONE',  ( 3.491481338843133355E-15, -0.000000000000000000, 1.000000000000000000 ) ) ;
#252 = ORIENTED_EDGE ( 'NONE', *, *, #14, .F. ) ;
#253 = CARTESIAN_POINT ( 'NONE',  ( 1.767562427789335472E-15, 0.000000000000000000, 0.5062499999999997558 ) ) ;
#254 = CC_DESIGN_DATE_AND_TIME_ASSIGNMENT ( #342, #64, ( #199 ) ) ;
#255 = SECURITY_CLASSIFICATION_LEVEL ( 'unclassified' ) ;
#256 = FACE_OUTER_BOUND ( 'NONE', #156, .T. ) ;
#257 = ORIENTED_EDGE ( 'NONE', *, *, #101, .F. ) ;
#258 = PERSON_AND_ORGANIZATION ( #91, #120 ) ;
#259 = CARTESIAN_POINT ( 'NONE',  ( 1.767562427789335472E-15, 0.000000000000000000, 0.5062499999999997558 ) ) ;
#260 = DIRECTION ( 'NONE',  ( 0.000000000000000000, 0.000000000000000000, 1.000000000000000000 ) ) ;
#261 = CARTESIAN_POINT ( 'NONE',  ( 1.326762908760390423E-13, 0.000000000000000000, 38.00000000000000000 ) ) ;
#262 = AXIS2_PLACEMENT_3D ( 'NONE', #261, #241, #38 ) ;
#263 = CARTESIAN_POINT ( 'NONE',  ( 3.142333204958813314E-15, 0.000000000000000000, 0.8999999999999980238 ) ) ;
#264 = ORIENTED_EDGE ( 'NONE', *, *, #155, .T. ) ;
#265 = CARTESIAN_POINT ( 'NONE',  ( 0.6640741737109504550, 0.000000000000000000, 6.058819045102509016 ) ) ;
#266 = DIRECTION ( 'NONE',  ( 3.491481338843133355E-15, -0.000000000000000000, 1.000000000000000000 ) ) ;
#267 = EDGE_CURVE ( 'NONE', #122, #122, #111, .T. ) ;
#268 = CARTESIAN_POINT ( 'NONE',  ( 2.025059176529017031E-14, 0.000000000000000000, 5.799999999999999822 ) ) ;
#269 = ORIENTED_EDGE ( 'NONE', *, *, #135, .T. ) ;
#270 = AXIS2_PLACEMENT_3D ( 'NONE', #203, #96, #57 ) ;
#271 = LOCAL_TIME ( 7, 49, 7.000000000000000000, #137 ) ;
#272 = CARTESIAN_POINT ( 'NONE',  ( 0.7251923788646679192, 0.000000000000000000, 0.3937499999999957145 ) ) ;
#273 = DIRECTION ( 'NONE',  ( 3.491481338843133355E-15, -0.000000000000000000, 1.000000000000000000 ) ) ;
#274 = CARTESIAN_POINT ( 'NONE',  ( 0.9850000000000006528, 0.000000000000000000, 0.2062499999999946598 ) ) ;
#275 = LOCAL_TIME ( 7, 49, 7.000000000000000000, #344 ) ;
#276 = CARTESIAN_POINT ( 'NONE',  ( 1.200000000000126299, 0.000000000000000000, 37.99999999999999289 ) ) ;
#277 =( NAMED_UNIT ( * ) PLANE_ANGLE_UNIT ( ) SI_UNIT ( $, .RADIAN. ) );
#278 = AXIS2_PLACEMENT_3D ( 'NONE', #259, #163, #165 ) ;
#279 = PERSON_AND_ORGANIZATION_ROLE ( 'design_owner' ) ;
#280 = PERSON_AND_ORGANIZATION_ROLE ( 'design_supplier' ) ;
#281 =( LENGTH_UNIT ( ) NAMED_UNIT ( * ) SI_UNIT ( .MILLI., .METRE. ) );
#282 = EDGE_CURVE ( 'NONE', #187, #187, #330, .T. ) ;
#283 = DIRECTION ( 'NONE',  ( 1.000000000000000000, 0.000000000000000000, -4.625929269271496366E-15 ) ) ;
#284 = CALENDAR_DATE ( 2023, 27, 9 ) ;
#285 = DIRECTION ( 'NONE',  ( 1.000000000000000000, 0.000000000000000000, -3.918365322693448674E-15 ) ) ;
#286 = AXIS2_PLACEMENT_3D ( 'NONE', #183, #260, #346 ) ;
#287 = APPROVAL_ROLE ( '' ) ;
#288 = DIRECTION ( 'NONE',  ( 3.491481338843133355E-15, -0.000000000000000000, 1.000000000000000000 ) ) ;
#289 = EDGE_LOOP ( 'NONE', ( #109 ) ) ;
#290 = DIRECTION ( 'NONE',  ( 1.000000000000000000, 0.000000000000000000, -5.782411586589388010E-15 ) ) ;
#291 = CARTESIAN_POINT ( 'NONE',  ( 1.326762908760390423E-13, 0.000000000000000000, 38.00000000000000000 ) ) ;
#292 = EDGE_LOOP ( 'NONE', ( #206 ) ) ;
#293 = DIRECTION ( 'NONE',  ( -1.000000000000000000, 0.000000000000000000, 4.625929269271496366E-15 ) ) ;
#294 = EDGE_CURVE ( 'NONE', #303, #303, #6, .T. ) ;
#295 = CYLINDRICAL_SURFACE ( 'NONE', #384, 0.7251923788646664759 ) ;
#296 = CARTESIAN_POINT ( 'NONE',  ( 2.422215178822423765E-15, 0.000000000000000000, 0.6937499999999998668 ) ) ;
#297 = CC_DESIGN_PERSON_AND_ORGANIZATION_ASSIGNMENT ( #198, #8, ( #333 ) ) ;
#298 = EDGE_LOOP ( 'NONE', ( #113 ) ) ;
#299 = EDGE_LOOP ( 'NONE', ( #383 ) ) ;
#300 = AXIS2_PLACEMENT_3D ( 'NONE', #223, #10, #338 ) ;
#301 = ADVANCED_FACE ( 'NONE', ( #393, #386 ), #34, .F. ) ;
#302 = EDGE_LOOP ( 'NONE', ( #387 ) ) ;
#303 = VERTEX_POINT ( 'NONE', #85 ) ;
#304 = CIRCLE ( 'NONE', #161, 0.9849999999999999867 ) ;
#305 = EDGE_CURVE ( 'NONE', #4, #4, #202, .T. ) ;
#306 = DESIGN_CONTEXT ( 'detailed design', #173, 'design' ) ;
#307 = MANIFOLD_SOLID_BREP ( 'Corps-Déplacer/Copier1', #75 ) ;
#308 = EDGE_CURVE ( 'NONE', #28, #28, #50, .T. ) ;
#309 = ADVANCED_FACE ( 'NONE', ( #244, #171 ), #249, .T. ) ;
#310 = DIRECTION ( 'NONE',  ( 3.491481338843133355E-15, -0.000000000000000000, 1.000000000000000000 ) ) ;
#311 = APPROVAL_DATE_TIME ( #61, #146 ) ;
#312 = CARTESIAN_POINT ( 'NONE',  ( 1.316288464743861212E-13, 0.000000000000000000, 37.69999999999999574 ) ) ;
#313 = DATE_AND_TIME ( #95, #271 ) ;
#314 = AXIS2_PLACEMENT_3D ( 'NONE', #232, #60, #229 ) ;
#315 = DIRECTION ( 'NONE',  ( 3.491481338843133355E-15, -0.000000000000000000, 1.000000000000000000 ) ) ;
#316 = AXIS2_PLACEMENT_3D ( 'NONE', #197, #77, #290 ) ;
#317 = EDGE_LOOP ( 'NONE', ( #269 ) ) ;
#318 = DATE_AND_TIME ( #127, #176 ) ;
#319 = FACE_OUTER_BOUND ( 'NONE', #302, .T. ) ;
#320 = FACE_OUTER_BOUND ( 'NONE', #234, .T. ) ;
#321 = DIRECTION ( 'NONE',  ( 3.491481338843133355E-15, -0.000000000000000000, 1.000000000000000000 ) ) ;
#322 = AXIS2_PLACEMENT_3D ( 'NONE', #19, #273, #329 ) ;
#323 = DIRECTION ( 'NONE',  ( -1.000000000000000000, 0.000000000000000000, 3.494763347859366968E-15 ) ) ;
#324 = CIRCLE ( 'NONE', #94, 0.6640741737109292497 ) ;
#325 = DIRECTION ( 'NONE',  ( 3.491481338843133355E-15, -0.000000000000000000, 1.000000000000000000 ) ) ;
#326 = ORIENTED_EDGE ( 'NONE', *, *, #101, .T. ) ;
#327 = FACE_OUTER_BOUND ( 'NONE', #180, .T. ) ;
#328 = ORIENTED_EDGE ( 'NONE', *, *, #308, .F. ) ;
#329 = DIRECTION ( 'NONE',  ( 1.000000000000000000, 0.000000000000000000, -3.513378214660489880E-15 ) ) ;
#330 = CIRCLE ( 'NONE', #243, 0.9849999999999997646 ) ;
#331 = UNCERTAINTY_MEASURE_WITH_UNIT (LENGTH_MEASURE( 1.000000000000000082E-05 ), #281, 'distance_accuracy_value', 'NONE');
#332 = DIRECTION ( 'NONE',  ( 3.491481338843133355E-15, -0.000000000000000000, 1.000000000000000000 ) ) ;
#333 = PRODUCT_DEFINITION_FORMATION_WITH_SPECIFIED_SOURCE ( 'ANY', '', #238, .NOT_KNOWN. ) ;
#334 = CYLINDRICAL_SURFACE ( 'NONE', #201, 0.9849999999999997646 ) ;
#335 = CARTESIAN_POINT ( 'NONE',  ( 0.9850000000000020961, 0.000000000000000000, 0.6937499999999964251 ) ) ;
#336 = ADVANCED_FACE ( 'NONE', ( #81, #319 ), #41, .F. ) ;
#337 = COORDINATED_UNIVERSAL_TIME_OFFSET ( 1, 0, .AHEAD. ) ;
#338 = DIRECTION ( 'NONE',  ( -1.000000000000000000, 0.000000000000000000, 3.522281169496055835E-15 ) ) ;
#339 = APPROVAL_PERSON_ORGANIZATION ( #106, #162, #190 ) ;
#340 = DIRECTION ( 'NONE',  ( -1.000000000000000000, 0.000000000000000000, 3.491481338843133355E-15 ) ) ;
#341 = EDGE_LOOP ( 'NONE', ( #215 ) ) ;
#342 = DATE_AND_TIME ( #284, #275 ) ;
#343 = CARTESIAN_POINT ( 'NONE',  ( 1.326762908760390423E-13, 0.000000000000000000, 38.00000000000000000 ) ) ;
#344 = COORDINATED_UNIVERSAL_TIME_OFFSET ( 1, 0, .AHEAD. ) ;
#345 = APPROVAL_DATE_TIME ( #170, #369 ) ;
#346 = DIRECTION ( 'NONE',  ( 1.000000000000000000, 0.000000000000000000, 0.000000000000000000 ) ) ;
#347 = AXIS2_PLACEMENT_3D ( 'NONE', #343, #310, #62 ) ;
#348 = FACE_OUTER_BOUND ( 'NONE', #356, .T. ) ;
#349 = EDGE_LOOP ( 'NONE', ( #172 ) ) ;
#350 = CARTESIAN_POINT ( 'NONE',  ( 0.7251923788646693625, 0.000000000000000000, 0.8437499999999947820 ) ) ;
#351 = ORIENTED_EDGE ( 'NONE', *, *, #70, .F. ) ;
#352 = CARTESIAN_POINT ( 'NONE',  ( -1.030223989811827269E-32, 0.000000000000000000, -2.950678780237105516E-18 ) ) ;
#353 = CARTESIAN_POINT ( 'NONE',  ( 0.000000000000000000, 0.000000000000000000, 0.000000000000000000 ) ) ;
#354 = DIRECTION ( 'NONE',  ( 1.000000000000000000, 0.000000000000000000, -3.491481338843133355E-15 ) ) ;
#355 = CONICAL_SURFACE ( 'NONE', #188, 0.9849999999999999867, 1.047197551196608512 ) ;
#356 = EDGE_LOOP ( 'NONE', ( #392 ) ) ;
#357 = LOCAL_TIME ( 7, 49, 7.000000000000000000, #228 ) ;
#358 = CC_DESIGN_PERSON_AND_ORGANIZATION_ASSIGNMENT ( #164, #280, ( #333 ) ) ;
#359 = CARTESIAN_POINT ( 'NONE',  ( 3.142333204958820020E-15, 0.7251923788646663649, 0.9000000000000000222 ) ) ;
#360 = ORIENTED_EDGE ( 'NONE', *, *, #267, .T. ) ;
#361 = DIRECTION ( 'NONE',  ( 3.491481338843133355E-15, -0.000000000000000000, 1.000000000000000000 ) ) ;
#362 = DIRECTION ( 'NONE',  ( 1.000000000000000000, 0.000000000000000000, -3.469446951953614189E-15 ) ) ;
#363 = CONICAL_SURFACE ( 'NONE', #278, 0.7251923788646664759, 1.047197551196608289 ) ;
#364 = FACE_OUTER_BOUND ( 'NONE', #247, .T. ) ;
#365 = ADVANCED_FACE ( 'NONE', ( #239, #212 ), #22, .T. ) ;
#366 = CARTESIAN_POINT ( 'NONE',  ( 0.7251923788646694735, 0.000000000000000000, 0.8999999999999955813 ) ) ;
#367 = DIRECTION ( 'NONE',  ( 3.491481338843133355E-15, -0.000000000000000000, 1.000000000000000000 ) ) ;
#368 = AXIS2_PLACEMENT_3D ( 'NONE', #179, #361, #391 ) ;
#369 = APPROVAL ( #231, 'UNSPECIFIED' ) ;
#370 = FACE_BOUND ( 'NONE', #242, .T. ) ;
#371 = DIRECTION ( 'NONE',  ( 3.491481338843133355E-15, -0.000000000000000000, 1.000000000000000000 ) ) ;
#372 = ORIENTED_EDGE ( 'NONE', *, *, #204, .F. ) ;
#373 = PERSON_AND_ORGANIZATION_ROLE ( 'creator' ) ;
#374 = CIRCLE ( 'NONE', #184, 1.499999999999996447 ) ;
#375 = DIRECTION ( 'NONE',  ( 3.491481338843133355E-15, -0.000000000000000000, 1.000000000000000000 ) ) ;
#376 = EDGE_LOOP ( 'NONE', ( #226 ) ) ;
#377 = ADVANCED_FACE ( 'NONE', ( #327, #104 ), #236, .T. ) ;
#378 = PERSON_AND_ORGANIZATION ( #91, #120 ) ;
#379 = PLANE ( 'NONE',  #88 ) ;
#380 = EDGE_LOOP ( 'NONE', ( #97 ) ) ;
#381 = CALENDAR_DATE ( 2023, 27, 9 ) ;
#382 = DIRECTION ( 'NONE',  ( 1.000000000000000000, 0.000000000000000000, -3.918365322693448674E-15 ) ) ;
#383 = ORIENTED_EDGE ( 'NONE', *, *, #294, .T. ) ;
#384 = AXIS2_PLACEMENT_3D ( 'NONE', #21, #266, #78 ) ;
#385 = CIRCLE ( 'NONE', #235, 0.9849999999999997646 ) ;
#386 = FACE_OUTER_BOUND ( 'NONE', #299, .T. ) ;
#387 = ORIENTED_EDGE ( 'NONE', *, *, #308, .T. ) ;
#388 = VERTEX_POINT ( 'NONE', #272 ) ;
#389 = ADVANCED_FACE ( 'NONE', ( #148 ), #153, .F. ) ;
#390 = FACE_OUTER_BOUND ( 'NONE', #298, .T. ) ;
#391 = DIRECTION ( 'NONE',  ( 1.000000000000000000, 0.000000000000000000, -3.491481338843133750E-15 ) ) ;
#392 = ORIENTED_EDGE ( 'NONE', *, *, #135, .F. ) ;
#393 = FACE_OUTER_BOUND ( 'NONE', #72, .T. ) ;
#394 = EDGE_LOOP ( 'NONE', ( #134 ) ) ;
#395 = CIRCLE ( 'NONE', #314, 0.6300000000000000044 ) ;
ENDSEC;
END-ISO-10303-21;
