ISO-10303-21;
HEADER;
FILE_DESCRIPTION (( 'STEP AP203' ),
    '1' );
FILE_NAME ('953223.step',
    '2023-09-27T05:49:07',
    ( '' ),
    ( '' ),
    'SwSTEP 2.0',
    'SolidWorks 2022',
    '' );
FILE_SCHEMA (( 'CONFIG_CONTROL_DESIGN' ));
ENDSEC;

DATA;
#1 = ORIENTED_EDGE ( 'NONE', *, *, #254, .T. ) ;
#2 = CALENDAR_DATE ( 2023, 27, 9 ) ;
#3 = CC_DESIGN_PERSON_AND_ORGANIZATION_ASSIGNMENT ( #24, #183, ( #222 ) ) ;
#4 = DIRECTION ( 'NONE',  ( 1.000000000000000000, 0.000000000000000000, -3.505803431989056433E-15 ) ) ;
#5 = FACE_OUTER_BOUND ( 'NONE', #246, .T. ) ;
#6 = DIRECTION ( 'NONE',  ( -3.491481338843133355E-15, 0.000000000000000000, -1.000000000000000000 ) ) ;
#7 = FACE_OUTER_BOUND ( 'NONE', #333, .T. ) ;
#8 = VERTEX_POINT ( 'NONE', #131 ) ;
#9 = CYLINDRICAL_SURFACE ( 'NONE', #36, 0.5751923788646665647 ) ;
#10 = AXIS2_PLACEMENT_3D ( 'NONE', #196, #77, #326 ) ;
#11 = AXIS2_PLACEMENT_3D ( 'NONE', #292, #371, #102 ) ;
#12 = DIRECTION ( 'NONE',  ( 3.491481338843133355E-15, -0.000000000000000000, 1.000000000000000000 ) ) ;
#13 = EDGE_CURVE ( 'NONE', #229, #229, #363, .T. ) ;
#14 = DIRECTION ( 'NONE',  ( 1.000000000000000000, 0.000000000000000000, -3.614007241618351532E-15 ) ) ;
#15 = DIRECTION ( 'NONE',  ( 1.000000000000000000, 0.000000000000000000, -3.581382861484573220E-15 ) ) ;
#16 = CIRCLE ( 'NONE', #153, 0.8349999999999999645 ) ;
#17 = LOCAL_TIME ( 7, 49, 7.000000000000000000, #277 ) ;
#18 = VERTEX_POINT ( 'NONE', #328 ) ;
#19 = ORIENTED_EDGE ( 'NONE', *, *, #60, .T. ) ;
#20 = EDGE_CURVE ( 'NONE', #8, #8, #16, .T. ) ;
#21 = ORIENTED_EDGE ( 'NONE', *, *, #251, .F. ) ;
#22 = CIRCLE ( 'NONE', #368, 0.8349999999999999645 ) ;
#23 = AXIS2_PLACEMENT_3D ( 'NONE', #223, #6, #340 ) ;
#24 = PERSON_AND_ORGANIZATION ( #113, #354 ) ;
#25 = EDGE_LOOP ( 'NONE', ( #231 ) ) ;
#26 = FACE_BOUND ( 'NONE', #297, .T. ) ;
#27 = PERSON_AND_ORGANIZATION_ROLE ( 'creator' ) ;
#28 = APPLICATION_CONTEXT ( 'configuration controlled 3d designs of mechanical parts and assemblies' ) ;
#29 = FACE_OUTER_BOUND ( 'NONE', #341, .T. ) ;
#30 = CALENDAR_DATE ( 2023, 27, 9 ) ;
#31 = ADVANCED_FACE ( 'NONE', ( #26, #29 ), #346, .F. ) ;
#32 = SHAPE_DEFINITION_REPRESENTATION ( #82, #177 ) ;
#33 = CIRCLE ( 'NONE', #52, 0.5751923788646665647 ) ;
#34 = DIRECTION ( 'NONE',  ( 1.000000000000000000, 0.000000000000000000, -4.625929269271490844E-15 ) ) ;
#35 = DIRECTION ( 'NONE',  ( 3.491481338843133355E-15, -0.000000000000000000, 1.000000000000000000 ) ) ;
#36 = AXIS2_PLACEMENT_3D ( 'NONE', #315, #258, #132 ) ;
#37 = FACE_OUTER_BOUND ( 'NONE', #253, .T. ) ;
#38 = CARTESIAN_POINT ( 'NONE',  ( 1.326762908760390423E-13, 0.000000000000000000, 38.00000000000000000 ) ) ;
#39 = CARTESIAN_POINT ( 'NONE',  ( 1.780655482809997696E-14, 0.000000000000000000, 5.099999999999999645 ) ) ;
#40 = FACE_BOUND ( 'NONE', #67, .T. ) ;
#41 = APPROVAL ( #359, 'UNSPECIFIED' ) ;
#42 = DIRECTION ( 'NONE',  ( 3.491481338843133355E-15, -0.000000000000000000, 1.000000000000000000 ) ) ;
#43 = DIRECTION ( 'NONE',  ( 1.000000000000000000, 0.000000000000000000, 0.000000000000000000 ) ) ;
#44 = CIRCLE ( 'NONE', #291, 0.4799999999999999822 ) ;
#45 = DIRECTION ( 'NONE',  ( 1.000000000000000000, 0.000000000000000000, -3.487135944077084845E-15 ) ) ;
#46 = DIRECTION ( 'NONE',  ( 1.000000000000000000, 0.000000000000000000, -3.505803431989056433E-15 ) ) ;
#47 = FACE_OUTER_BOUND ( 'NONE', #151, .T. ) ;
#48 = APPROVAL ( #273, 'UNSPECIFIED' ) ;
#49 = EDGE_LOOP ( 'NONE', ( #139 ) ) ;
#50 = CLOSED_SHELL ( 'NONE', ( #206, #356, #156, #361, #181, #137, #128, #193, #85, #31, #53, #395, #146, #238, #80, #386 ) ) ;
#51 = CIRCLE ( 'NONE', #124, 0.8349999999999999645 ) ;
#52 = AXIS2_PLACEMENT_3D ( 'NONE', #314, #369, #45 ) ;
#53 = ADVANCED_FACE ( 'NONE', ( #234, #203 ), #165, .T. ) ;
#54 = APPLICATION_PROTOCOL_DEFINITION ( 'international standard', 'config_control_design', 1994, #28 ) ;
#55 = ORIENTED_EDGE ( 'NONE', *, *, #13, .F. ) ;
#56 = APPLICATION_PROTOCOL_DEFINITION ( 'international standard', 'config_control_design', 1994, #313 ) ;
#57 = EDGE_LOOP ( 'NONE', ( #149 ) ) ;
#58 = CIRCLE ( 'NONE', #327, 0.4777645209389173031 ) ;
#59 = ORIENTED_EDGE ( 'NONE', *, *, #65, .F. ) ;
#60 = EDGE_CURVE ( 'NONE', #260, #260, #22, .T. ) ;
#61 = EDGE_LOOP ( 'NONE', ( #118 ) ) ;
#62 = CARTESIAN_POINT ( 'NONE',  ( 3.142333204958813314E-15, 0.000000000000000000, 0.8999999999999980238 ) ) ;
#63 = AXIS2_PLACEMENT_3D ( 'NONE', #293, #286, #72 ) ;
#64 = AXIS2_PLACEMENT_3D ( 'NONE', #150, #217, #182 ) ;
#65 = EDGE_CURVE ( 'NONE', #347, #347, #160, .T. ) ;
#66 = FACE_OUTER_BOUND ( 'NONE', #357, .T. ) ;
#67 = EDGE_LOOP ( 'NONE', ( #1 ) ) ;
#68 = FACE_OUTER_BOUND ( 'NONE', #25, .T. ) ;
#69 = CARTESIAN_POINT ( 'NONE',  ( 1.316288464743861212E-13, 0.000000000000000000, 37.69999999999999574 ) ) ;
#70 = CIRCLE ( 'NONE', #119, 0.5751923788646665647 ) ;
#71 = CARTESIAN_POINT ( 'NONE',  ( 1.500000000000127898, 0.000000000000000000, 37.69999999999998863 ) ) ;
#72 = DIRECTION ( 'NONE',  ( 1.000000000000000000, 0.000000000000000000, 0.000000000000000000 ) ) ;
#73 = PRODUCT_RELATED_PRODUCT_CATEGORY ( 'detail', '', ( #210 ) ) ;
#74 = CARTESIAN_POINT ( 'NONE',  ( 1.500000000000031752, 0.000000000000000000, 9.038344321307743456 ) ) ;
#75 = DIRECTION ( 'NONE',  ( 3.491481338843133355E-15, -0.000000000000000000, 1.000000000000000000 ) ) ;
#76 = VERTEX_POINT ( 'NONE', #200 ) ;
#77 = DIRECTION ( 'NONE',  ( -3.491481338843133355E-15, 0.000000000000000000, -1.000000000000000000 ) ) ;
#78 = VERTEX_POINT ( 'NONE', #355 ) ;
#79 = CONICAL_SURFACE ( 'NONE', #272, 0.5751923788646665647, 1.047197551196608289 ) ;
#80 = ADVANCED_FACE ( 'NONE', ( #138, #5 ), #358, .T. ) ;
#81 = CARTESIAN_POINT ( 'NONE',  ( 0.5751923788646696734, 0.000000000000000000, 0.8999999999999959144 ) ) ;
#82 = PRODUCT_DEFINITION_SHAPE ( 'NONE', 'NONE',  #222 ) ;
#83 = LOCAL_TIME ( 7, 49, 7.000000000000000000, #145 ) ;
#84 = LOCAL_TIME ( 7, 49, 7.000000000000000000, #215 ) ;
#85 = ADVANCED_FACE ( 'NONE', ( #201, #7 ), #265, .T. ) ;
#86 = DATE_AND_TIME ( #30, #17 ) ;
#87 = CIRCLE ( 'NONE', #311, 0.8349999999999999645 ) ;
#88 = EDGE_LOOP ( 'NONE', ( #19 ) ) ;
#89 = APPROVAL_STATUS ( 'not_yet_approved' ) ;
#90 = ORIENTED_EDGE ( 'NONE', *, *, #251, .T. ) ;
#91 = APPROVAL_DATE_TIME ( #367, #100 ) ;
#92 = ORIENTED_EDGE ( 'NONE', *, *, #349, .T. ) ;
#93 = CARTESIAN_POINT ( 'NONE',  ( 2.422215178822423765E-15, 0.000000000000000000, 0.6937499999999998668 ) ) ;
#94 = FACE_OUTER_BOUND ( 'NONE', #337, .T. ) ;
#95 = ORIENTED_EDGE ( 'NONE', *, *, #254, .F. ) ;
#96 = DIRECTION ( 'NONE',  ( 1.000000000000000000, 0.000000000000000000, -3.491481338843133750E-15 ) ) ;
#97 = DIRECTION ( 'NONE',  ( 1.000000000000000000, 0.000000000000000000, -3.374461439006786007E-15 ) ) ;
#98 = CARTESIAN_POINT ( 'NONE',  ( 0.000000000000000000, 0.000000000000000000, 0.000000000000000000 ) ) ;
#99 = CARTESIAN_POINT ( 'NONE',  ( 1.767562427789335472E-15, 0.000000000000000000, 0.5062499999999997558 ) ) ;
#100 = APPROVAL ( #89, 'UNSPECIFIED' ) ;
#101 = AXIS2_PLACEMENT_3D ( 'NONE', #39, #164, #287 ) ;
#102 = DIRECTION ( 'NONE',  ( 1.000000000000000000, 0.000000000000000000, -3.581382861484574009E-15 ) ) ;
#103 = CARTESIAN_POINT ( 'NONE',  ( 2.422215178822423765E-15, 0.000000000000000000, 0.6937499999999998668 ) ) ;
#104 = DIRECTION ( 'NONE',  ( 3.491481338843133355E-15, -0.000000000000000000, 1.000000000000000000 ) ) ;
#105 = FACE_BOUND ( 'NONE', #278, .T. ) ;
#106 = FACE_OUTER_BOUND ( 'NONE', #247, .T. ) ;
#107 = CARTESIAN_POINT ( 'NONE',  ( 0.5751923788646695623, 0.000000000000000000, 0.8437499999999952260 ) ) ;
#108 = EDGE_LOOP ( 'NONE', ( #212 ) ) ;
#109 = EDGE_CURVE ( 'NONE', #76, #76, #133, .T. ) ;
#110 =( NAMED_UNIT ( * ) PLANE_ANGLE_UNIT ( ) SI_UNIT ( $, .RADIAN. ) );
#111 = AXIS2_PLACEMENT_3D ( 'NONE', #264, #75, #159 ) ;
#112 = CIRCLE ( 'NONE', #228, 0.4799999999999995381 ) ;
#113 = PERSON ( 'UNSPECIFIED', 'UNSPECIFIED', 'UNSPECIFIED', ('UNSPECIFIED'), ('UNSPECIFIED'), ('UNSPECIFIED') ) ;
#114 = DIRECTION ( 'NONE',  ( 1.000000000000000000, 0.000000000000000000, 0.000000000000000000 ) ) ;
#115 = CC_DESIGN_DATE_AND_TIME_ASSIGNMENT ( #216, #310, ( #222 ) ) ;
#116 = ORIENTED_EDGE ( 'NONE', *, *, #319, .F. ) ;
#117 = DATE_TIME_ROLE ( 'classification_date' ) ;
#118 = ORIENTED_EDGE ( 'NONE', *, *, #20, .T. ) ;
#119 = AXIS2_PLACEMENT_3D ( 'NONE', #130, #199, #15 ) ;
#120 = DATE_AND_TIME ( #2, #134 ) ;
#121 = EDGE_LOOP ( 'NONE', ( #244 ) ) ;
#122 = EDGE_CURVE ( 'NONE', #237, #237, #70, .T. ) ;
#123 = MECHANICAL_CONTEXT ( 'NONE', #313, 'mechanical' ) ;
#124 = AXIS2_PLACEMENT_3D ( 'NONE', #158, #285, #4 ) ;
#125 = CC_DESIGN_SECURITY_CLASSIFICATION ( #296, ( #384 ) ) ;
#126 = DIRECTION ( 'NONE',  ( 1.000000000000000000, 0.000000000000000000, -3.388131789017201356E-15 ) ) ;
#127 = FACE_OUTER_BOUND ( 'NONE', #208, .T. ) ;
#128 = ADVANCED_FACE ( 'NONE', ( #321, #353 ), #259, .T. ) ;
#129 = FACE_OUTER_BOUND ( 'NONE', #189, .T. ) ;
#130 = CARTESIAN_POINT ( 'NONE',  ( 2.945937379648884302E-15, 0.000000000000000000, 0.8437499999999973355 ) ) ;
#131 = CARTESIAN_POINT ( 'NONE',  ( 0.8350000000000022959, 0.000000000000000000, 0.6937499999999969802 ) ) ;
#132 = DIRECTION ( 'NONE',  ( 1.000000000000000000, 0.000000000000000000, 0.000000000000000000 ) ) ;
#133 = CIRCLE ( 'NONE', #388, 0.5751923788646665647 ) ;
#134 = LOCAL_TIME ( 7, 49, 7.000000000000000000, #187 ) ;
#135 = CYLINDRICAL_SURFACE ( 'NONE', #339, 1.499999999999998224 ) ;
#136 = DIRECTION ( 'NONE',  ( 3.491481338843133355E-15, -0.000000000000000000, 1.000000000000000000 ) ) ;
#137 = ADVANCED_FACE ( 'NONE', ( #127, #105 ), #79, .T. ) ;
#138 = FACE_BOUND ( 'NONE', #121, .T. ) ;
#139 = ORIENTED_EDGE ( 'NONE', *, *, #319, .T. ) ;
#140 = DESIGN_CONTEXT ( 'detailed design', #28, 'design' ) ;
#141 = CARTESIAN_POINT ( 'NONE',  ( 0.8350000000000006306, 0.000000000000000000, 0.2062499999999951872 ) ) ;
#142 = APPROVAL_PERSON_ORGANIZATION ( #248, #100, #364 ) ;
#143 = CC_DESIGN_PERSON_AND_ORGANIZATION_ASSIGNMENT ( #152, #27, ( #384 ) ) ;
#144 = AXIS2_PLACEMENT_3D ( 'NONE', #226, #342, #96 ) ;
#145 = COORDINATED_UNIVERSAL_TIME_OFFSET ( 1, 0, .AHEAD. ) ;
#146 = ADVANCED_FACE ( 'NONE', ( #106, #40 ), #389, .T. ) ;
#147 = ORIENTED_EDGE ( 'NONE', *, *, #390, .F. ) ;
#148 = PERSON_AND_ORGANIZATION_ROLE ( 'design_supplier' ) ;
#149 = ORIENTED_EDGE ( 'NONE', *, *, #312, .F. ) ;
#150 = CARTESIAN_POINT ( 'NONE',  ( -6.926148087905276247E-34, 0.000000000000000000, -1.983727654749598225E-19 ) ) ;
#151 = EDGE_LOOP ( 'NONE', ( #282 ) ) ;
#152 = PERSON_AND_ORGANIZATION ( #113, #354 ) ;
#153 = AXIS2_PLACEMENT_3D ( 'NONE', #93, #304, #214 ) ;
#154 = EDGE_LOOP ( 'NONE', ( #360 ) ) ;
#155 = APPROVAL_ROLE ( '' ) ;
#156 = ADVANCED_FACE ( 'NONE', ( #192, #167 ), #227, .T. ) ;
#157 = ORIENTED_EDGE ( 'NONE', *, *, #122, .T. ) ;
#158 = CARTESIAN_POINT ( 'NONE',  ( 8.510485763430169108E-16, 0.000000000000000000, 0.2437500000000009104 ) ) ;
#159 = DIRECTION ( 'NONE',  ( 1.000000000000000000, 0.000000000000000000, -3.469446951953614189E-15 ) ) ;
#160 = CIRCLE ( 'NONE', #111, 1.500000000000000000 ) ;
#161 = AXIS2_PLACEMENT_3D ( 'NONE', #191, #255, #166 ) ;
#162 = DIRECTION ( 'NONE',  ( -1.000000000000000000, 0.000000000000000000, 3.505803431989056433E-15 ) ) ;
#163 = DIRECTION ( 'NONE',  ( 1.000000000000000000, 0.000000000000000000, -3.581382861484573220E-15 ) ) ;
#164 = DIRECTION ( 'NONE',  ( 3.491481338843133355E-15, -0.000000000000000000, 1.000000000000000000 ) ) ;
#165 = CYLINDRICAL_SURFACE ( 'NONE', #63, 0.4799999999999997602 ) ;
#166 = DIRECTION ( 'NONE',  ( 1.000000000000000000, 0.000000000000000000, -3.374461439006786007E-15 ) ) ;
#167 = FACE_OUTER_BOUND ( 'NONE', #108, .T. ) ;
#168 = AXIS2_PLACEMENT_3D ( 'NONE', #69, #380, #372 ) ;
#169 = CIRCLE ( 'NONE', #317, 1.199999999999993516 ) ;
#170 = FACE_BOUND ( 'NONE', #179, .T. ) ;
#171 = DIRECTION ( 'NONE',  ( 3.491481338843133355E-15, -0.000000000000000000, 1.000000000000000000 ) ) ;
#172 = VERTEX_POINT ( 'NONE', #81 ) ;
#173 = EDGE_LOOP ( 'NONE', ( #116 ) ) ;
#174 =( NAMED_UNIT ( * ) SI_UNIT ( $, .STERADIAN. ) SOLID_ANGLE_UNIT ( ) );
#175 = CC_DESIGN_DATE_AND_TIME_ASSIGNMENT ( #120, #117, ( #296 ) ) ;
#176 = MANIFOLD_SOLID_BREP ( 'Corps-Déplacer/Copier1', #50 ) ;
#177 = ADVANCED_BREP_SHAPE_REPRESENTATION ( '953223', ( #176, #365 ), #207 ) ;
#178 = CARTESIAN_POINT ( 'NONE',  ( 1.200000000000126299, 0.000000000000000000, 37.99999999999999289 ) ) ;
#179 = EDGE_LOOP ( 'NONE', ( #184 ) ) ;
#180 = DATE_AND_TIME ( #362, #334 ) ;
#181 = ADVANCED_FACE ( 'NONE', ( #288, #225 ), #9, .T. ) ;
#182 = DIRECTION ( 'NONE',  ( 1.000000000000000000, 0.000000000000000000, -3.491481338843133355E-15 ) ) ;
#183 = PERSON_AND_ORGANIZATION_ROLE ( 'creator' ) ;
#184 = ORIENTED_EDGE ( 'NONE', *, *, #281, .T. ) ;
#185 = PERSON_AND_ORGANIZATION ( #113, #354 ) ;
#186 = EDGE_LOOP ( 'NONE', ( #332 ) ) ;
#187 = COORDINATED_UNIVERSAL_TIME_OFFSET ( 1, 0, .AHEAD. ) ;
#188 = AXIS2_PLACEMENT_3D ( 'NONE', #233, #136, #97 ) ;
#189 = EDGE_LOOP ( 'NONE', ( #303 ) ) ;
#190 = CARTESIAN_POINT ( 'NONE',  ( 0.4800000000000030909, 0.000000000000000000, 0.8999999999999963585 ) ) ;
#191 = CARTESIAN_POINT ( 'NONE',  ( 1.871021669421260278E-14, 0.000000000000000000, 5.358819045102512391 ) ) ;
#192 = FACE_OUTER_BOUND ( 'NONE', #242, .T. ) ;
#193 = ADVANCED_FACE ( 'NONE', ( #261, #377 ), #345, .T. ) ;
#194 = CARTESIAN_POINT ( 'NONE',  ( 8.510485763430169108E-16, 0.000000000000000000, 0.2437500000000009104 ) ) ;
#195 = AXIS2_PLACEMENT_3D ( 'NONE', #366, #218, #280 ) ;
#196 = CARTESIAN_POINT ( 'NONE',  ( 3.142333204958820020E-15, 0.5751923788646664537, 0.9000000000000000222 ) ) ;
#197 = APPROVAL_PERSON_ORGANIZATION ( #305, #48, #391 ) ;
#198 = DIRECTION ( 'NONE',  ( 1.000000000000000000, 0.000000000000000000, -3.505803431989056433E-15 ) ) ;
#199 = DIRECTION ( 'NONE',  ( 3.491481338843133355E-15, -0.000000000000000000, 1.000000000000000000 ) ) ;
#200 = CARTESIAN_POINT ( 'NONE',  ( 0.5751923788646683411, 0.000000000000000000, 0.5062499999999976463 ) ) ;
#201 = FACE_OUTER_BOUND ( 'NONE', #331, .T. ) ;
#202 = FACE_OUTER_BOUND ( 'NONE', #249, .T. ) ;
#203 = FACE_OUTER_BOUND ( 'NONE', #186, .T. ) ;
#204 = CONICAL_SURFACE ( 'NONE', #302, 0.8349999999999999645, 1.047197551196608289 ) ;
#205 = VERTEX_POINT ( 'NONE', #236 ) ;
#206 = ADVANCED_FACE ( 'NONE', ( #47 ), #267, .F. ) ;
#207 =( GEOMETRIC_REPRESENTATION_CONTEXT ( 3 ) GLOBAL_UNCERTAINTY_ASSIGNED_CONTEXT ( ( #279 ) ) GLOBAL_UNIT_ASSIGNED_CONTEXT ( ( #270, #110, #174 ) ) REPRESENTATION_CONTEXT ( 'NONE', 'WORKASPACE' ) );
#208 = EDGE_LOOP ( 'NONE', ( #276 ) ) ;
#209 = EDGE_CURVE ( 'NONE', #221, #221, #44, .T. ) ;
#210 = PRODUCT ( '953223', '953223', '', ( #123 ) ) ;
#211 = PERSON_AND_ORGANIZATION ( #113, #354 ) ;
#212 = ORIENTED_EDGE ( 'NONE', *, *, #275, .T. ) ;
#213 = AXIS2_PLACEMENT_3D ( 'NONE', #38, #171, #290 ) ;
#214 = DIRECTION ( 'NONE',  ( 1.000000000000000000, 0.000000000000000000, -3.505803431989056433E-15 ) ) ;
#215 = COORDINATED_UNIVERSAL_TIME_OFFSET ( 1, 0, .AHEAD. ) ;
#216 = DATE_AND_TIME ( #338, #83 ) ;
#217 = DIRECTION ( 'NONE',  ( 3.491481338843133355E-15, -0.000000000000000000, 1.000000000000000000 ) ) ;
#218 = DIRECTION ( 'NONE',  ( 3.491481338843133355E-15, -0.000000000000000000, 1.000000000000000000 ) ) ;
#219 = PERSON_AND_ORGANIZATION ( #113, #354 ) ;
#220 = AXIS2_PLACEMENT_3D ( 'NONE', #374, #12, #43 ) ;
#221 = VERTEX_POINT ( 'NONE', #190 ) ;
#222 = PRODUCT_DEFINITION ( 'UNKNOWN', '', #384, #140 ) ;
#223 = CARTESIAN_POINT ( 'NONE',  ( 1.326762908760390423E-13, 1.199999999999993516, 38.00000000000000000 ) ) ;
#224 = DIRECTION ( 'NONE',  ( 3.491481338843133355E-15, -0.000000000000000000, 1.000000000000000000 ) ) ;
#225 = FACE_OUTER_BOUND ( 'NONE', #49, .T. ) ;
#226 = CARTESIAN_POINT ( 'NONE',  ( 0.000000000000000000, 0.000000000000000000, 0.000000000000000000 ) ) ;
#227 = CYLINDRICAL_SURFACE ( 'NONE', #235, 0.8349999999999999645 ) ;
#228 = AXIS2_PLACEMENT_3D ( 'NONE', #263, #104, #14 ) ;
#229 = VERTEX_POINT ( 'NONE', #71 ) ;
#230 = CARTESIAN_POINT ( 'NONE',  ( 1.326762908760390423E-13, 0.000000000000000000, 38.00000000000000000 ) ) ;
#231 = ORIENTED_EDGE ( 'NONE', *, *, #390, .T. ) ;
#232 = DIRECTION ( 'NONE',  ( 1.000000000000000000, 0.000000000000000000, -3.491481338843133750E-15 ) ) ;
#233 = CARTESIAN_POINT ( 'NONE',  ( 1.871021669421260278E-14, 0.000000000000000000, 5.358819045102512391 ) ) ;
#234 = FACE_OUTER_BOUND ( 'NONE', #57, .T. ) ;
#235 = AXIS2_PLACEMENT_3D ( 'NONE', #230, #348, #351 ) ;
#236 = CARTESIAN_POINT ( 'NONE',  ( 0.5140741737109481013, 0.000000000000000000, 5.358819045102510614 ) ) ;
#237 = VERTEX_POINT ( 'NONE', #107 ) ;
#238 = ADVANCED_FACE ( 'NONE', ( #202, #66 ), #135, .T. ) ;
#239 = EDGE_LOOP ( 'NONE', ( #307 ) ) ;
#240 = AXIS2_PLACEMENT_3D ( 'NONE', #103, #298, #294 ) ;
#241 = CC_DESIGN_APPROVAL ( #100, ( #296 ) ) ;
#242 = EDGE_LOOP ( 'NONE', ( #147 ) ) ;
#243 = PERSON_AND_ORGANIZATION_ROLE ( 'design_owner' ) ;
#244 = ORIENTED_EDGE ( 'NONE', *, *, #349, .F. ) ;
#245 = CARTESIAN_POINT ( 'NONE',  ( 0.000000000000000000, 0.000000000000000000, 0.000000000000000000 ) ) ;
#246 = EDGE_LOOP ( 'NONE', ( #381 ) ) ;
#247 = EDGE_LOOP ( 'NONE', ( #59 ) ) ;
#248 = PERSON_AND_ORGANIZATION ( #113, #354 ) ;
#249 = EDGE_LOOP ( 'NONE', ( #55 ) ) ;
#250 = CC_DESIGN_APPROVAL ( #48, ( #384 ) ) ;
#251 = EDGE_CURVE ( 'NONE', #172, #172, #394, .T. ) ;
#252 = CALENDAR_DATE ( 2023, 27, 9 ) ;
#253 = EDGE_LOOP ( 'NONE', ( #95 ) ) ;
#254 = EDGE_CURVE ( 'NONE', #205, #205, #266, .T. ) ;
#255 = DIRECTION ( 'NONE',  ( 3.491481338843133355E-15, -0.000000000000000000, 1.000000000000000000 ) ) ;
#256 = APPROVAL_PERSON_ORGANIZATION ( #185, #41, #155 ) ;
#257 = CARTESIAN_POINT ( 'NONE',  ( 1.326762908760390423E-13, 0.000000000000000000, 38.00000000000000000 ) ) ;
#258 = DIRECTION ( 'NONE',  ( 3.491481338843133355E-15, -0.000000000000000000, 1.000000000000000000 ) ) ;
#259 = CYLINDRICAL_SURFACE ( 'NONE', #220, 0.8349999999999999645 ) ;
#260 = VERTEX_POINT ( 'NONE', #376 ) ;
#261 = FACE_BOUND ( 'NONE', #154, .T. ) ;
#262 = CC_DESIGN_APPROVAL ( #41, ( #222 ) ) ;
#263 = CARTESIAN_POINT ( 'NONE',  ( 1.780655482809998011E-14, 0.000000000000000000, 5.100000000000000533 ) ) ;
#264 = CARTESIAN_POINT ( 'NONE',  ( 3.155721053188480542E-14, 0.000000000000000000, 9.038344321307748785 ) ) ;
#265 = CYLINDRICAL_SURFACE ( 'NONE', #213, 0.5751923788646665647 ) ;
#266 = CIRCLE ( 'NONE', #161, 0.5140741737109293386 ) ;
#267 = PLANE ( 'NONE',  #64 ) ;
#268 = VERTEX_POINT ( 'NONE', #352 ) ;
#269 = ORIENTED_EDGE ( 'NONE', *, *, #109, .T. ) ;
#270 =( LENGTH_UNIT ( ) NAMED_UNIT ( * ) SI_UNIT ( .MILLI., .METRE. ) );
#271 = ORIENTED_EDGE ( 'NONE', *, *, #109, .F. ) ;
#272 = AXIS2_PLACEMENT_3D ( 'NONE', #99, #284, #382 ) ;
#273 = APPROVAL_STATUS ( 'not_yet_approved' ) ;
#274 = SECURITY_CLASSIFICATION_LEVEL ( 'unclassified' ) ;
#275 = EDGE_CURVE ( 'NONE', #295, #295, #87, .T. ) ;
#276 = ORIENTED_EDGE ( 'NONE', *, *, #60, .F. ) ;
#277 = COORDINATED_UNIVERSAL_TIME_OFFSET ( 1, 0, .AHEAD. ) ;
#278 = EDGE_LOOP ( 'NONE', ( #269 ) ) ;
#279 = UNCERTAINTY_MEASURE_WITH_UNIT (LENGTH_MEASURE( 1.000000000000000082E-05 ), #270, 'distance_accuracy_value', 'NONE');
#280 = DIRECTION ( 'NONE',  ( 1.000000000000000000, 0.000000000000000000, -4.625929269271496366E-15 ) ) ;
#281 = EDGE_CURVE ( 'NONE', #268, #268, #58, .T. ) ;
#282 = ORIENTED_EDGE ( 'NONE', *, *, #281, .F. ) ;
#283 = CARTESIAN_POINT ( 'NONE',  ( 1.326762908760390423E-13, 0.000000000000000000, 38.00000000000000000 ) ) ;
#284 = DIRECTION ( 'NONE',  ( 3.491481338843133355E-15, -0.000000000000000000, 1.000000000000000000 ) ) ;
#285 = DIRECTION ( 'NONE',  ( 3.491481338843133355E-15, -0.000000000000000000, 1.000000000000000000 ) ) ;
#286 = DIRECTION ( 'NONE',  ( 3.491481338843133355E-15, -0.000000000000000000, 1.000000000000000000 ) ) ;
#287 = DIRECTION ( 'NONE',  ( 1.000000000000000000, 0.000000000000000000, -3.491481338843132961E-15 ) ) ;
#288 = FACE_OUTER_BOUND ( 'NONE', #335, .T. ) ;
#289 = PLANE ( 'NONE',  #23 ) ;
#290 = DIRECTION ( 'NONE',  ( 1.000000000000000000, 0.000000000000000000, 0.000000000000000000 ) ) ;
#291 = AXIS2_PLACEMENT_3D ( 'NONE', #62, #42, #126 ) ;
#292 = CARTESIAN_POINT ( 'NONE',  ( 3.142333204958813314E-15, 0.000000000000000000, 0.8999999999999980238 ) ) ;
#293 = CARTESIAN_POINT ( 'NONE',  ( 1.326762908760390423E-13, 0.000000000000000000, 38.00000000000000000 ) ) ;
#294 = DIRECTION ( 'NONE',  ( -1.000000000000000000, 0.000000000000000000, 3.505803431989056433E-15 ) ) ;
#295 = VERTEX_POINT ( 'NONE', #141 ) ;
#296 = SECURITY_CLASSIFICATION ( '', '', #274 ) ;
#297 = EDGE_LOOP ( 'NONE', ( #383 ) ) ;
#298 = DIRECTION ( 'NONE',  ( -3.491481338843133355E-15, 0.000000000000000000, -1.000000000000000000 ) ) ;
#299 = DIRECTION ( 'NONE',  ( 0.000000000000000000, 0.000000000000000000, 1.000000000000000000 ) ) ;
#300 = ORIENTED_EDGE ( 'NONE', *, *, #65, .T. ) ;
#301 = COORDINATED_UNIVERSAL_TIME_OFFSET ( 1, 0, .AHEAD. ) ;
#302 = AXIS2_PLACEMENT_3D ( 'NONE', #194, #344, #162 ) ;
#303 = ORIENTED_EDGE ( 'NONE', *, *, #312, .T. ) ;
#304 = DIRECTION ( 'NONE',  ( 3.491481338843133355E-15, -0.000000000000000000, 1.000000000000000000 ) ) ;
#305 = PERSON_AND_ORGANIZATION ( #113, #354 ) ;
#306 = CC_DESIGN_PERSON_AND_ORGANIZATION_ASSIGNMENT ( #393, #392, ( #296 ) ) ;
#307 = ORIENTED_EDGE ( 'NONE', *, *, #275, .F. ) ;
#308 = APPROVAL_DATE_TIME ( #180, #41 ) ;
#309 = EDGE_LOOP ( 'NONE', ( #378 ) ) ;
#310 = DATE_TIME_ROLE ( 'creation_date' ) ;
#311 = AXIS2_PLACEMENT_3D ( 'NONE', #320, #373, #198 ) ;
#312 = EDGE_CURVE ( 'NONE', #78, #78, #112, .T. ) ;
#313 = APPLICATION_CONTEXT ( 'configuration controlled 3d designs of mechanical parts and assemblies' ) ;
#314 = CARTESIAN_POINT ( 'NONE',  ( 1.374770777169477842E-15, 0.000000000000000000, 0.3937499999999982681 ) ) ;
#315 = CARTESIAN_POINT ( 'NONE',  ( 1.326762908760390423E-13, 0.000000000000000000, 38.00000000000000000 ) ) ;
#316 = FACE_BOUND ( 'NONE', #173, .T. ) ;
#317 = AXIS2_PLACEMENT_3D ( 'NONE', #283, #224, #324 ) ;
#318 = DIRECTION ( 'NONE',  ( 3.491481338843133355E-15, -0.000000000000000000, 1.000000000000000000 ) ) ;
#319 = EDGE_CURVE ( 'NONE', #387, #387, #33, .T. ) ;
#320 = CARTESIAN_POINT ( 'NONE',  ( 7.201180261363896478E-16, 0.000000000000000000, 0.2062499999999981015 ) ) ;
#321 = FACE_OUTER_BOUND ( 'NONE', #309, .T. ) ;
#322 = DIRECTION ( 'NONE',  ( 3.491481338843133355E-15, -0.000000000000000000, 1.000000000000000000 ) ) ;
#323 = CARTESIAN_POINT ( 'NONE',  ( 1.767562427789335472E-15, 0.000000000000000000, 0.5062499999999997558 ) ) ;
#324 = DIRECTION ( 'NONE',  ( 1.000000000000000000, 0.000000000000000000, -5.782411586589388010E-15 ) ) ;
#325 = CC_DESIGN_PERSON_AND_ORGANIZATION_ASSIGNMENT ( #219, #243, ( #210 ) ) ;
#326 = DIRECTION ( 'NONE',  ( -1.000000000000000000, 0.000000000000000000, 3.491481338843133355E-15 ) ) ;
#327 = AXIS2_PLACEMENT_3D ( 'NONE', #98, #350, #232 ) ;
#328 = CARTESIAN_POINT ( 'NONE',  ( 0.8350000000000007416, 0.000000000000000000, 0.2437499999999979960 ) ) ;
#329 = CONICAL_SURFACE ( 'NONE', #144, 0.4777645209389173031, 1.047197551196603627 ) ;
#330 = CARTESIAN_POINT ( 'NONE',  ( 0.5751923788646680080, 0.000000000000000000, 0.3937499999999962697 ) ) ;
#331 = EDGE_LOOP ( 'NONE', ( #21 ) ) ;
#332 = ORIENTED_EDGE ( 'NONE', *, *, #209, .T. ) ;
#333 = EDGE_LOOP ( 'NONE', ( #157 ) ) ;
#334 = LOCAL_TIME ( 7, 49, 7.000000000000000000, #301 ) ;
#335 = EDGE_LOOP ( 'NONE', ( #271 ) ) ;
#336 = APPROVAL_DATE_TIME ( #86, #48 ) ;
#337 = EDGE_LOOP ( 'NONE', ( #92 ) ) ;
#338 = CALENDAR_DATE ( 2023, 27, 9 ) ;
#339 = AXIS2_PLACEMENT_3D ( 'NONE', #257, #322, #34 ) ;
#340 = DIRECTION ( 'NONE',  ( -1.000000000000000000, 0.000000000000000000, 3.491481338843133355E-15 ) ) ;
#341 = EDGE_LOOP ( 'NONE', ( #90 ) ) ;
#342 = DIRECTION ( 'NONE',  ( 3.491481338843133355E-15, -0.000000000000000000, 1.000000000000000000 ) ) ;
#343 = CARTESIAN_POINT ( 'NONE',  ( 2.291284628615796404E-15, 0.000000000000000000, 0.6562499999999971134 ) ) ;
#344 = DIRECTION ( 'NONE',  ( -3.491481338843133355E-15, 0.000000000000000000, -1.000000000000000000 ) ) ;
#345 = CONICAL_SURFACE ( 'NONE', #240, 0.8349999999999999645, 1.047197551196608289 ) ;
#346 = PLANE ( 'NONE',  #10 ) ;
#347 = VERTEX_POINT ( 'NONE', #74 ) ;
#348 = DIRECTION ( 'NONE',  ( 3.491481338843133355E-15, -0.000000000000000000, 1.000000000000000000 ) ) ;
#349 = EDGE_CURVE ( 'NONE', #385, #385, #169, .T. ) ;
#350 = DIRECTION ( 'NONE',  ( 3.491481338843133355E-15, -0.000000000000000000, 1.000000000000000000 ) ) ;
#351 = DIRECTION ( 'NONE',  ( 1.000000000000000000, 0.000000000000000000, 0.000000000000000000 ) ) ;
#352 = CARTESIAN_POINT ( 'NONE',  ( 0.4777645209389173031, 0.000000000000000000, -1.668105909219559346E-15 ) ) ;
#353 = FACE_OUTER_BOUND ( 'NONE', #88, .T. ) ;
#354 = ORGANIZATION ( 'UNSPECIFIED', 'UNSPECIFIED', '' ) ;
#355 = CARTESIAN_POINT ( 'NONE',  ( 0.4800000000000173017, 0.000000000000000000, 5.099999999999998757 ) ) ;
#356 = ADVANCED_FACE ( 'NONE', ( #379, #170 ), #329, .T. ) ;
#357 = EDGE_LOOP ( 'NONE', ( #300 ) ) ;
#358 = CONICAL_SURFACE ( 'NONE', #168, 1.499999999999996447, 0.7853981633974501664 ) ;
#359 = APPROVAL_STATUS ( 'not_yet_approved' ) ;
#360 = ORIENTED_EDGE ( 'NONE', *, *, #122, .F. ) ;
#361 = ADVANCED_FACE ( 'NONE', ( #316, #68 ), #204, .T. ) ;
#362 = CALENDAR_DATE ( 2023, 27, 9 ) ;
#363 = CIRCLE ( 'NONE', #195, 1.499999999999996447 ) ;
#364 = APPROVAL_ROLE ( '' ) ;
#365 = AXIS2_PLACEMENT_3D ( 'NONE', #245, #299, #114 ) ;
#366 = CARTESIAN_POINT ( 'NONE',  ( 1.316288464743861212E-13, 0.000000000000000000, 37.69999999999999574 ) ) ;
#367 = DATE_AND_TIME ( #252, #84 ) ;
#368 = AXIS2_PLACEMENT_3D ( 'NONE', #343, #35, #46 ) ;
#369 = DIRECTION ( 'NONE',  ( 3.491481338843133355E-15, -0.000000000000000000, 1.000000000000000000 ) ) ;
#370 = CC_DESIGN_PERSON_AND_ORGANIZATION_ASSIGNMENT ( #211, #148, ( #384 ) ) ;
#371 = DIRECTION ( 'NONE',  ( 3.491481338843133355E-15, -0.000000000000000000, 1.000000000000000000 ) ) ;
#372 = DIRECTION ( 'NONE',  ( -1.000000000000000000, 0.000000000000000000, 4.625929269271496366E-15 ) ) ;
#373 = DIRECTION ( 'NONE',  ( 3.491481338843133355E-15, -0.000000000000000000, 1.000000000000000000 ) ) ;
#374 = CARTESIAN_POINT ( 'NONE',  ( 1.326762908760390423E-13, 0.000000000000000000, 38.00000000000000000 ) ) ;
#375 = TOROIDAL_SURFACE ( 'NONE', #101, 1.479999999999999538, 1.000000000000000000 ) ;
#376 = CARTESIAN_POINT ( 'NONE',  ( 0.8350000000000021849, 0.000000000000000000, 0.6562499999999942268 ) ) ;
#377 = FACE_OUTER_BOUND ( 'NONE', #61, .T. ) ;
#378 = ORIENTED_EDGE ( 'NONE', *, *, #20, .F. ) ;
#379 = FACE_OUTER_BOUND ( 'NONE', #239, .T. ) ;
#380 = DIRECTION ( 'NONE',  ( -3.491481338843133355E-15, 0.000000000000000000, -1.000000000000000000 ) ) ;
#381 = ORIENTED_EDGE ( 'NONE', *, *, #13, .T. ) ;
#382 = DIRECTION ( 'NONE',  ( 1.000000000000000000, 0.000000000000000000, -3.581382861484573220E-15 ) ) ;
#383 = ORIENTED_EDGE ( 'NONE', *, *, #209, .F. ) ;
#384 = PRODUCT_DEFINITION_FORMATION_WITH_SPECIFIED_SOURCE ( 'ANY', '', #210, .NOT_KNOWN. ) ;
#385 = VERTEX_POINT ( 'NONE', #178 ) ;
#386 = ADVANCED_FACE ( 'NONE', ( #94 ), #289, .F. ) ;
#387 = VERTEX_POINT ( 'NONE', #330 ) ;
#388 = AXIS2_PLACEMENT_3D ( 'NONE', #323, #318, #163 ) ;
#389 = CONICAL_SURFACE ( 'NONE', #188, 0.5140741737109293386, 0.2617993877991429130 ) ;
#390 = EDGE_CURVE ( 'NONE', #18, #18, #51, .T. ) ;
#391 = APPROVAL_ROLE ( '' ) ;
#392 = PERSON_AND_ORGANIZATION_ROLE ( 'classification_officer' ) ;
#393 = PERSON_AND_ORGANIZATION ( #113, #354 ) ;
#394 = CIRCLE ( 'NONE', #11, 0.5751923788646664537 ) ;
#395 = ADVANCED_FACE ( 'NONE', ( #37, #129 ), #375, .F. ) ;
ENDSEC;
END-ISO-10303-21;
