ISO-10303-21;
HEADER;
FILE_DESCRIPTION (( 'STEP AP203' ),
    '1' );
FILE_NAME ('953222.step',
    '2023-09-27T05:49:06',
    ( '' ),
    ( '' ),
    'SwSTEP 2.0',
    'SolidWorks 2022',
    '' );
FILE_SCHEMA (( 'CONFIG_CONTROL_DESIGN' ));
ENDSEC;

DATA;
#1 = EDGE_CURVE ( 'NONE', #330, #330, #115, .T. ) ;
#2 = COORDINATED_UNIVERSAL_TIME_OFFSET ( 1, 0, .AHEAD. ) ;
#3 = AXIS2_PLACEMENT_3D ( 'NONE', #164, #162, #58 ) ;
#4 = DATE_AND_TIME ( #100, #124 ) ;
#5 = DIRECTION ( 'NONE',  ( 1.000000000000000000, 0.000000000000000000, -4.625929269271496366E-15 ) ) ;
#6 = EDGE_CURVE ( 'NONE', #183, #183, #303, .T. ) ;
#7 = CARTESIAN_POINT ( 'NONE',  ( 7.992538141864911100E-34, 0.000000000000000000, 2.289153905234148160E-19 ) ) ;
#8 = APPROVAL_DATE_TIME ( #4, #352 ) ;
#9 = EDGE_CURVE ( 'NONE', #23, #23, #77, .T. ) ;
#10 = DIRECTION ( 'NONE',  ( 1.000000000000000000, 0.000000000000000000, -3.491481338843133355E-15 ) ) ;
#11 = CARTESIAN_POINT ( 'NONE',  ( 2.793185071074506684E-15, 0.5340598923241482998, 0.8000000000000000444 ) ) ;
#12 = AXIS2_PLACEMENT_3D ( 'NONE', #195, #136, #369 ) ;
#13 = DIRECTION ( 'NONE',  ( 1.000000000000000000, 0.000000000000000000, -3.451192871279424170E-15 ) ) ;
#14 = FACE_BOUND ( 'NONE', #324, .T. ) ;
#15 = ORIENTED_EDGE ( 'NONE', *, *, #340, .F. ) ;
#16 = EDGE_LOOP ( 'NONE', ( #90 ) ) ;
#17 = AXIS2_PLACEMENT_3D ( 'NONE', #20, #109, #144 ) ;
#18 = DIRECTION ( 'NONE',  ( 1.000000000000000000, 0.000000000000000000, -3.690901012716615186E-15 ) ) ;
#19 = VERTEX_POINT ( 'NONE', #96 ) ;
#20 = CARTESIAN_POINT ( 'NONE',  ( 1.222018468595107324E-15, 0.000000000000000000, 0.3500000000000030864 ) ) ;
#21 = EDGE_LOOP ( 'NONE', ( #331 ) ) ;
#22 = EDGE_LOOP ( 'NONE', ( #261 ) ) ;
#23 = VERTEX_POINT ( 'NONE', #301 ) ;
#24 = EDGE_LOOP ( 'NONE', ( #296 ) ) ;
#25 = MECHANICAL_CONTEXT ( 'NONE', #210, 'mechanical' ) ;
#26 = AXIS2_PLACEMENT_3D ( 'NONE', #11, #40, #253 ) ;
#27 = DIRECTION ( 'NONE',  ( 1.000000000000000000, 0.000000000000000000, -3.441405186871597863E-15 ) ) ;
#28 = VERTEX_POINT ( 'NONE', #334 ) ;
#29 = APPLICATION_PROTOCOL_DEFINITION ( 'international standard', 'config_control_design', 1994, #210 ) ;
#30 = CARTESIAN_POINT ( 'NONE',  ( 0.4474573519457046289, 0.000000000000000000, -1.562288994246592056E-15 ) ) ;
#31 = PERSON_AND_ORGANIZATION ( #36, #93 ) ;
#32 = AXIS2_PLACEMENT_3D ( 'NONE', #390, #364, #27 ) ;
#33 = CC_DESIGN_APPROVAL ( #352, ( #167 ) ) ;
#34 = DIRECTION ( 'NONE',  ( 0.000000000000000000, 0.000000000000000000, 1.000000000000000000 ) ) ;
#35 = EDGE_CURVE ( 'NONE', #145, #145, #239, .T. ) ;
#36 = PERSON ( 'UNSPECIFIED', 'UNSPECIFIED', 'UNSPECIFIED', ('UNSPECIFIED'), ('UNSPECIFIED'), ('UNSPECIFIED') ) ;
#37 = CARTESIAN_POINT ( 'NONE',  ( 0.000000000000000000, 0.000000000000000000, 0.000000000000000000 ) ) ;
#38 = CIRCLE ( 'NONE', #262, 1.500000000000000000 ) ;
#39 = APPROVAL_DATE_TIME ( #309, #154 ) ;
#40 = DIRECTION ( 'NONE',  ( -3.491481338843133355E-15, 0.000000000000000000, -1.000000000000000000 ) ) ;
#41 = FACE_OUTER_BOUND ( 'NONE', #362, .T. ) ;
#42 = DIRECTION ( 'NONE',  ( 1.000000000000000000, 0.000000000000000000, -3.491481338843133355E-15 ) ) ;
#43 = FACE_BOUND ( 'NONE', #24, .T. ) ;
#44 = AXIS2_PLACEMENT_3D ( 'NONE', #57, #55, #182 ) ;
#45 = CC_DESIGN_APPROVAL ( #154, ( #126 ) ) ;
#46 = CC_DESIGN_DATE_AND_TIME_ASSIGNMENT ( #229, #65, ( #217 ) ) ;
#47 = DIRECTION ( 'NONE',  ( -3.491481338843133355E-15, 0.000000000000000000, -1.000000000000000000 ) ) ;
#48 = ORIENTED_EDGE ( 'NONE', *, *, #6, .T. ) ;
#49 = FACE_BOUND ( 'NONE', #21, .T. ) ;
#50 = ORIENTED_EDGE ( 'NONE', *, *, #132, .T. ) ;
#51 = ORIENTED_EDGE ( 'NONE', *, *, #346, .T. ) ;
#52 = VERTEX_POINT ( 'NONE', #152 ) ;
#53 = ORIENTED_EDGE ( 'NONE', *, *, #307, .F. ) ;
#54 = CONICAL_SURFACE ( 'NONE', #160, 0.5040741737109293297, 0.2617993877991426910 ) ;
#55 = DIRECTION ( 'NONE',  ( 3.491481338843133355E-15, -0.000000000000000000, 1.000000000000000000 ) ) ;
#56 = ORIENTED_EDGE ( 'NONE', *, *, #307, .T. ) ;
#57 = CARTESIAN_POINT ( 'NONE',  ( 1.326762908760390423E-13, 0.000000000000000000, 38.00000000000000000 ) ) ;
#58 = DIRECTION ( 'NONE',  ( 1.000000000000000000, 0.000000000000000000, -3.543144354527792031E-15 ) ) ;
#59 = ORIENTED_EDGE ( 'NONE', *, *, #256, .T. ) ;
#60 = DIRECTION ( 'NONE',  ( 1.000000000000000000, 0.000000000000000000, -3.460219699421823039E-15 ) ) ;
#61 = CARTESIAN_POINT ( 'NONE',  ( 0.7650000000000006795, 0.000000000000000000, 0.1833333333333312665 ) ) ;
#62 = PERSON_AND_ORGANIZATION ( #36, #93 ) ;
#63 = PERSON_AND_ORGANIZATION_ROLE ( 'creator' ) ;
#64 = CIRCLE ( 'NONE', #87, 0.7650000000000000133 ) ;
#65 = DATE_TIME_ROLE ( 'creation_date' ) ;
#66 = ADVANCED_FACE ( 'NONE', ( #148, #359 ), #81, .T. ) ;
#67 = PERSON_AND_ORGANIZATION ( #36, #93 ) ;
#68 =( NAMED_UNIT ( * ) SI_UNIT ( $, .STERADIAN. ) SOLID_ANGLE_UNIT ( ) );
#69 = CC_DESIGN_PERSON_AND_ORGANIZATION_ASSIGNMENT ( #131, #222, ( #167 ) ) ;
#70 = DIRECTION ( 'NONE',  ( 3.491481338843133355E-15, -0.000000000000000000, 1.000000000000000000 ) ) ;
#71 = CIRCLE ( 'NONE', #234, 0.4474573519457046289 ) ;
#72 =( NAMED_UNIT ( * ) PLANE_ANGLE_UNIT ( ) SI_UNIT ( $, .RADIAN. ) );
#73 = FACE_OUTER_BOUND ( 'NONE', #138, .T. ) ;
#74 = CARTESIAN_POINT ( 'NONE',  ( 1.606081415867841343E-14, 0.000000000000000000, 4.599999999999999645 ) ) ;
#75 = CARTESIAN_POINT ( 'NONE',  ( 1.326762908760390423E-13, 0.000000000000000000, 38.00000000000000000 ) ) ;
#76 = FACE_BOUND ( 'NONE', #355, .T. ) ;
#77 = CIRCLE ( 'NONE', #225, 0.5340598923241482998 ) ;
#78 = ORIENTED_EDGE ( 'NONE', *, *, #1, .F. ) ;
#79 = APPROVAL_PERSON_ORGANIZATION ( #134, #352, #199 ) ;
#80 = ORIENTED_EDGE ( 'NONE', *, *, #220, .F. ) ;
#81 = CYLINDRICAL_SURFACE ( 'NONE', #44, 0.7650000000000000133 ) ;
#82 = CYLINDRICAL_SURFACE ( 'NONE', #107, 1.499999999999998224 ) ;
#83 = EDGE_LOOP ( 'NONE', ( #173 ) ) ;
#84 = PRODUCT_RELATED_PRODUCT_CATEGORY ( 'detail', '', ( #383 ) ) ;
#85 = EDGE_LOOP ( 'NONE', ( #51 ) ) ;
#86 = FACE_OUTER_BOUND ( 'NONE', #85, .T. ) ;
#87 = AXIS2_PLACEMENT_3D ( 'NONE', #375, #371, #341 ) ;
#88 = DIRECTION ( 'NONE',  ( 3.491481338843133355E-15, -0.000000000000000000, 1.000000000000000000 ) ) ;
#89 = EDGE_LOOP ( 'NONE', ( #56 ) ) ;
#90 = ORIENTED_EDGE ( 'NONE', *, *, #187, .F. ) ;
#91 = VERTEX_POINT ( 'NONE', #354 ) ;
#92 = APPLICATION_PROTOCOL_DEFINITION ( 'international standard', 'config_control_design', 1994, #335 ) ;
#93 = ORGANIZATION ( 'UNSPECIFIED', 'UNSPECIFIED', '' ) ;
#94 = AXIS2_PLACEMENT_3D ( 'NONE', #97, #290, #13 ) ;
#95 = SECURITY_CLASSIFICATION_LEVEL ( 'unclassified' ) ;
#96 = CARTESIAN_POINT ( 'NONE',  ( 0.7650000000000021227, 0.000000000000000000, 0.5833333333333288184 ) ) ;
#97 = CARTESIAN_POINT ( 'NONE',  ( 2.793185071074513784E-15, 0.000000000000000000, 0.8000000000000020428 ) ) ;
#98 = PERSON_AND_ORGANIZATION_ROLE ( 'creator' ) ;
#99 = PLANE ( 'NONE',  #394 ) ;
#100 = CALENDAR_DATE ( 2023, 27, 9 ) ;
#101 = ADVANCED_FACE ( 'NONE', ( #204, #298 ), #337, .T. ) ;
#102 = CARTESIAN_POINT ( 'NONE',  ( 1.696447602479103295E-14, 0.000000000000000000, 4.858819045102512391 ) ) ;
#103 = COORDINATED_UNIVERSAL_TIME_OFFSET ( 1, 0, .AHEAD. ) ;
#104 = FACE_OUTER_BOUND ( 'NONE', #146, .T. ) ;
#105 = ORIENTED_EDGE ( 'NONE', *, *, #9, .T. ) ;
#106 = DIRECTION ( 'NONE',  ( 1.000000000000000000, 0.000000000000000000, -3.441405186871597863E-15 ) ) ;
#107 = AXIS2_PLACEMENT_3D ( 'NONE', #206, #389, #121 ) ;
#108 = ORIENTED_EDGE ( 'NONE', *, *, #122, .F. ) ;
#109 = DIRECTION ( 'NONE',  ( 3.491481338843133355E-15, -0.000000000000000000, 1.000000000000000000 ) ) ;
#110 = DIRECTION ( 'NONE',  ( 3.491481338843133355E-15, -0.000000000000000000, 1.000000000000000000 ) ) ;
#111 = FACE_OUTER_BOUND ( 'NONE', #177, .T. ) ;
#112 = EDGE_LOOP ( 'NONE', ( #174 ) ) ;
#113 = ORIENTED_EDGE ( 'NONE', *, *, #6, .F. ) ;
#114 = DIRECTION ( 'NONE',  ( -3.491481338843133355E-15, 0.000000000000000000, -1.000000000000000000 ) ) ;
#115 = CIRCLE ( 'NONE', #32, 0.5040741737109293297 ) ;
#116 = CC_DESIGN_PERSON_AND_ORGANIZATION_ASSIGNMENT ( #336, #63, ( #217 ) ) ;
#117 = CARTESIAN_POINT ( 'NONE',  ( 0.5340598923241495211, 0.000000000000000000, 0.3500000000000012546 ) ) ;
#118 = FACE_OUTER_BOUND ( 'NONE', #83, .T. ) ;
#119 = DIRECTION ( 'NONE',  ( 1.000000000000000000, 0.000000000000000000, 0.000000000000000000 ) ) ;
#120 = DIRECTION ( 'NONE',  ( 1.000000000000000000, 0.000000000000000000, 0.000000000000000000 ) ) ;
#121 = DIRECTION ( 'NONE',  ( 1.000000000000000000, 0.000000000000000000, -4.625929269271490844E-15 ) ) ;
#122 = EDGE_CURVE ( 'NONE', #91, #91, #393, .T. ) ;
#123 = AXIS2_PLACEMENT_3D ( 'NONE', #37, #129, #286 ) ;
#124 = LOCAL_TIME ( 7, 49, 6.000000000000000000, #157 ) ;
#125 = CIRCLE ( 'NONE', #147, 0.7650000000000000133 ) ;
#126 = SECURITY_CLASSIFICATION ( '', '', #95 ) ;
#127 = PERSON_AND_ORGANIZATION_ROLE ( 'classification_officer' ) ;
#128 = DIRECTION ( 'NONE',  ( 3.491481338843133355E-15, -0.000000000000000000, 1.000000000000000000 ) ) ;
#129 = DIRECTION ( 'NONE',  ( 3.491481338843133355E-15, -0.000000000000000000, 1.000000000000000000 ) ) ;
#130 = FACE_OUTER_BOUND ( 'NONE', #347, .T. ) ;
#131 = PERSON_AND_ORGANIZATION ( #36, #93 ) ;
#132 = EDGE_CURVE ( 'NONE', #275, #275, #254, .T. ) ;
#133 = DIRECTION ( 'NONE',  ( 1.000000000000000000, 0.000000000000000000, -5.782411586589388010E-15 ) ) ;
#134 = PERSON_AND_ORGANIZATION ( #36, #93 ) ;
#135 = FACE_OUTER_BOUND ( 'NONE', #180, .T. ) ;
#136 = DIRECTION ( 'NONE',  ( 3.491481338843133355E-15, -0.000000000000000000, 1.000000000000000000 ) ) ;
#137 = ADVANCED_FACE ( 'NONE', ( #118, #242 ), #54, .T. ) ;
#138 = EDGE_LOOP ( 'NONE', ( #297 ) ) ;
#139 = FACE_OUTER_BOUND ( 'NONE', #235, .T. ) ;
#140 = ORIENTED_EDGE ( 'NONE', *, *, #153, .T. ) ;
#141 = CARTESIAN_POINT ( 'NONE',  ( 2.793185071074513784E-15, 0.000000000000000000, 0.8000000000000020428 ) ) ;
#142 = ORIENTED_EDGE ( 'NONE', *, *, #35, .F. ) ;
#143 = PLANE ( 'NONE',  #310 ) ;
#144 = DIRECTION ( 'NONE',  ( 1.000000000000000000, 0.000000000000000000, -3.451192871279424170E-15 ) ) ;
#145 = VERTEX_POINT ( 'NONE', #117 ) ;
#146 = EDGE_LOOP ( 'NONE', ( #50 ) ) ;
#147 = AXIS2_PLACEMENT_3D ( 'NONE', #163, #255, #258 ) ;
#148 = FACE_OUTER_BOUND ( 'NONE', #329, .T. ) ;
#149 = CARTESIAN_POINT ( 'NONE',  ( 0.4700000000000155165, 0.000000000000000000, 4.599999999999997868 ) ) ;
#150 = COORDINATED_UNIVERSAL_TIME_OFFSET ( 1, 0, .AHEAD. ) ;
#151 = EDGE_CURVE ( 'NONE', #241, #241, #196, .T. ) ;
#152 = CARTESIAN_POINT ( 'NONE',  ( 1.200000000000126299, 0.000000000000000000, 37.99999999999999289 ) ) ;
#153 = EDGE_CURVE ( 'NONE', #213, #213, #125, .T. ) ;
#154 = APPROVAL ( #314, 'UNSPECIFIED' ) ;
#155 = APPROVAL_ROLE ( '' ) ;
#156 = CIRCLE ( 'NONE', #94, 0.5340598923241482998 ) ;
#157 = COORDINATED_UNIVERSAL_TIME_OFFSET ( 1, 0, .AHEAD. ) ;
#158 =( LENGTH_UNIT ( ) NAMED_UNIT ( * ) SI_UNIT ( .MILLI., .METRE. ) );
#159 = DIRECTION ( 'NONE',  ( 3.491481338843133355E-15, -0.000000000000000000, 1.000000000000000000 ) ) ;
#160 = AXIS2_PLACEMENT_3D ( 'NONE', #102, #291, #106 ) ;
#161 = SHAPE_DEFINITION_REPRESENTATION ( #325, #381 ) ;
#162 = DIRECTION ( 'NONE',  ( 3.491481338843133355E-15, -0.000000000000000000, 1.000000000000000000 ) ) ;
#163 = CARTESIAN_POINT ( 'NONE',  ( 6.401049121212433174E-16, 0.000000000000000000, 0.1833333333333339588 ) ) ;
#164 = CARTESIAN_POINT ( 'NONE',  ( 2.036697447658488278E-15, 0.000000000000000000, 0.5833333333333314830 ) ) ;
#165 = FACE_OUTER_BOUND ( 'NONE', #230, .T. ) ;
#166 = CONICAL_SURFACE ( 'NONE', #123, 0.4474573519457046289, 1.047197551196598075 ) ;
#167 = PRODUCT_DEFINITION_FORMATION_WITH_SPECIFIED_SOURCE ( 'ANY', '', #383, .NOT_KNOWN. ) ;
#168 = ADVANCED_FACE ( 'NONE', ( #201, #14 ), #166, .T. ) ;
#169 = DIRECTION ( 'NONE',  ( 3.491481338843133355E-15, -0.000000000000000000, 1.000000000000000000 ) ) ;
#170 = ADVANCED_FACE ( 'NONE', ( #233, #41 ), #252, .T. ) ;
#171 = MANIFOLD_SOLID_BREP ( 'Corps-Déplacer/Copier1', #356 ) ;
#172 = DESIGN_CONTEXT ( 'detailed design', #335, 'design' ) ;
#173 = ORIENTED_EDGE ( 'NONE', *, *, #346, .F. ) ;
#174 = ORIENTED_EDGE ( 'NONE', *, *, #256, .F. ) ;
#175 = DIRECTION ( 'NONE',  ( 1.000000000000000000, 0.000000000000000000, -3.507712910982514253E-15 ) ) ;
#176 = CARTESIAN_POINT ( 'NONE',  ( 0.5340598923241510754, 0.000000000000000000, 0.8000000000000002665 ) ) ;
#177 = EDGE_LOOP ( 'NONE', ( #321 ) ) ;
#178 = CARTESIAN_POINT ( 'NONE',  ( 1.606081415867841343E-14, 0.000000000000000000, 4.599999999999999645 ) ) ;
#179 = DIRECTION ( 'NONE',  ( 3.491481338843133355E-15, -0.000000000000000000, 1.000000000000000000 ) ) ;
#180 = EDGE_LOOP ( 'NONE', ( #113 ) ) ;
#181 = EDGE_CURVE ( 'NONE', #28, #28, #64, .T. ) ;
#182 = DIRECTION ( 'NONE',  ( 1.000000000000000000, 0.000000000000000000, 0.000000000000000000 ) ) ;
#183 = VERTEX_POINT ( 'NONE', #149 ) ;
#184 = EDGE_LOOP ( 'NONE', ( #273 ) ) ;
#185 = AXIS2_PLACEMENT_3D ( 'NONE', #257, #128, #344 ) ;
#186 = LOCAL_TIME ( 7, 49, 6.000000000000000000, #150 ) ;
#187 = EDGE_CURVE ( 'NONE', #305, #305, #71, .T. ) ;
#188 = CARTESIAN_POINT ( 'NONE',  ( 1.500000000000127898, 0.000000000000000000, 37.69999999999998863 ) ) ;
#189 = APPROVAL_STATUS ( 'not_yet_approved' ) ;
#190 = TOROIDAL_SURFACE ( 'NONE', #245, 1.469999999999999529, 1.000000000000000000 ) ;
#191 = ADVANCED_FACE ( 'NONE', ( #308 ), #99, .F. ) ;
#192 = APPROVAL ( #189, 'UNSPECIFIED' ) ;
#193 = CARTESIAN_POINT ( 'NONE',  ( 1.326762908760390423E-13, 0.000000000000000000, 38.00000000000000000 ) ) ;
#194 = CALENDAR_DATE ( 2023, 27, 9 ) ;
#195 = CARTESIAN_POINT ( 'NONE',  ( 1.571166602479406657E-15, 0.000000000000000000, 0.4499999999999990119 ) ) ;
#196 = CIRCLE ( 'NONE', #372, 1.499999999999996447 ) ;
#197 = APPROVAL_PERSON_ORGANIZATION ( #31, #192, #155 ) ;
#198 = CARTESIAN_POINT ( 'NONE',  ( 7.564876234160016431E-16, 0.000000000000000000, 0.2166666666666636210 ) ) ;
#199 = APPROVAL_ROLE ( '' ) ;
#200 = DIRECTION ( 'NONE',  ( 1.000000000000000000, 0.000000000000000000, 0.000000000000000000 ) ) ;
#201 = FACE_OUTER_BOUND ( 'NONE', #260, .T. ) ;
#202 = ORIENTED_EDGE ( 'NONE', *, *, #9, .F. ) ;
#203 = ORIENTED_EDGE ( 'NONE', *, *, #151, .T. ) ;
#204 = FACE_BOUND ( 'NONE', #211, .T. ) ;
#205 = ADVANCED_FACE ( 'NONE', ( #348, #73 ), #367, .T. ) ;
#206 = CARTESIAN_POINT ( 'NONE',  ( 1.326762908760390423E-13, 0.000000000000000000, 38.00000000000000000 ) ) ;
#207 =( GEOMETRIC_REPRESENTATION_CONTEXT ( 3 ) GLOBAL_UNCERTAINTY_ASSIGNED_CONTEXT ( ( #350 ) ) GLOBAL_UNIT_ASSIGNED_CONTEXT ( ( #158, #72, #68 ) ) REPRESENTATION_CONTEXT ( 'NONE', 'WORKASPACE' ) );
#208 = ORIENTED_EDGE ( 'NONE', *, *, #35, .T. ) ;
#209 = EDGE_LOOP ( 'NONE', ( #203 ) ) ;
#210 = APPLICATION_CONTEXT ( 'configuration controlled 3d designs of mechanical parts and assemblies' ) ;
#211 = EDGE_LOOP ( 'NONE', ( #202 ) ) ;
#212 = DIRECTION ( 'NONE',  ( 3.491481338843133355E-15, -0.000000000000000000, 1.000000000000000000 ) ) ;
#213 = VERTEX_POINT ( 'NONE', #61 ) ;
#214 = FACE_OUTER_BOUND ( 'NONE', #89, .T. ) ;
#215 = AXIS2_PLACEMENT_3D ( 'NONE', #267, #386, #243 ) ;
#216 = APPROVAL_DATE_TIME ( #366, #192 ) ;
#217 = PRODUCT_DEFINITION ( 'UNKNOWN', '', #167, #172 ) ;
#218 = CIRCLE ( 'NONE', #387, 1.199999999999993516 ) ;
#219 = DATE_TIME_ROLE ( 'classification_date' ) ;
#220 = EDGE_CURVE ( 'NONE', #52, #52, #218, .T. ) ;
#221 = DIRECTION ( 'NONE',  ( 3.491481338843133355E-15, -0.000000000000000000, 1.000000000000000000 ) ) ;
#222 = PERSON_AND_ORGANIZATION_ROLE ( 'design_supplier' ) ;
#223 = AXIS2_PLACEMENT_3D ( 'NONE', #141, #110, #60 ) ;
#224 = DIRECTION ( 'NONE',  ( 3.491481338843133355E-15, -0.000000000000000000, 1.000000000000000000 ) ) ;
#225 = AXIS2_PLACEMENT_3D ( 'NONE', #327, #212, #353 ) ;
#226 = LOCAL_TIME ( 7, 49, 6.000000000000000000, #103 ) ;
#227 = DIRECTION ( 'NONE',  ( 3.491481338843133355E-15, -0.000000000000000000, 1.000000000000000000 ) ) ;
#228 = DIRECTION ( 'NONE',  ( -1.000000000000000000, 0.000000000000000000, 4.625929269271496366E-15 ) ) ;
#229 = DATE_AND_TIME ( #274, #186 ) ;
#230 = EDGE_LOOP ( 'NONE', ( #15 ) ) ;
#231 = CARTESIAN_POINT ( 'NONE',  ( 1.326762908760390423E-13, 0.000000000000000000, 38.00000000000000000 ) ) ;
#232 = CC_DESIGN_PERSON_AND_ORGANIZATION_ASSIGNMENT ( #62, #306, ( #383 ) ) ;
#233 = FACE_OUTER_BOUND ( 'NONE', #112, .T. ) ;
#234 = AXIS2_PLACEMENT_3D ( 'NONE', #250, #169, #285 ) ;
#235 = EDGE_LOOP ( 'NONE', ( #78 ) ) ;
#236 = ADVANCED_FACE ( 'NONE', ( #165, #374 ), #283, .T. ) ;
#237 = CARTESIAN_POINT ( 'NONE',  ( 1.326762908760390423E-13, 1.199999999999993516, 38.00000000000000000 ) ) ;
#238 = EDGE_LOOP ( 'NONE', ( #53 ) ) ;
#239 = CIRCLE ( 'NONE', #17, 0.5340598923241482998 ) ;
#240 = EDGE_LOOP ( 'NONE', ( #300 ) ) ;
#241 = VERTEX_POINT ( 'NONE', #188 ) ;
#242 = FACE_BOUND ( 'NONE', #240, .T. ) ;
#243 = DIRECTION ( 'NONE',  ( 1.000000000000000000, 0.000000000000000000, -3.451192871279424170E-15 ) ) ;
#244 = ADVANCED_FACE ( 'NONE', ( #315, #43 ), #326, .T. ) ;
#245 = AXIS2_PLACEMENT_3D ( 'NONE', #74, #313, #42 ) ;
#246 = CALENDAR_DATE ( 2023, 27, 9 ) ;
#247 = CIRCLE ( 'NONE', #3, 0.7650000000000000133 ) ;
#248 = AXIS2_PLACEMENT_3D ( 'NONE', #384, #88, #119 ) ;
#249 = DATE_AND_TIME ( #343, #349 ) ;
#250 = CARTESIAN_POINT ( 'NONE',  ( 0.000000000000000000, 0.000000000000000000, 0.000000000000000000 ) ) ;
#251 = CC_DESIGN_PERSON_AND_ORGANIZATION_ASSIGNMENT ( #279, #127, ( #126 ) ) ;
#252 = CYLINDRICAL_SURFACE ( 'NONE', #185, 0.5340598923241482998 ) ;
#253 = DIRECTION ( 'NONE',  ( -1.000000000000000000, 0.000000000000000000, 3.491481338843133355E-15 ) ) ;
#254 = CIRCLE ( 'NONE', #223, 0.4699999999999999734 ) ;
#255 = DIRECTION ( 'NONE',  ( 3.491481338843133355E-15, -0.000000000000000000, 1.000000000000000000 ) ) ;
#256 = EDGE_CURVE ( 'NONE', #391, #391, #156, .T. ) ;
#257 = CARTESIAN_POINT ( 'NONE',  ( 1.326762908760390423E-13, 0.000000000000000000, 38.00000000000000000 ) ) ;
#258 = DIRECTION ( 'NONE',  ( 1.000000000000000000, 0.000000000000000000, -3.507712910982514253E-15 ) ) ;
#259 = VERTEX_POINT ( 'NONE', #320 ) ;
#260 = EDGE_LOOP ( 'NONE', ( #294 ) ) ;
#261 = ORIENTED_EDGE ( 'NONE', *, *, #151, .F. ) ;
#262 = AXIS2_PLACEMENT_3D ( 'NONE', #323, #179, #299 ) ;
#263 = DIRECTION ( 'NONE',  ( 3.491481338843133355E-15, -0.000000000000000000, 1.000000000000000000 ) ) ;
#264 = CC_DESIGN_APPROVAL ( #192, ( #217 ) ) ;
#265 = ADVANCED_FACE ( 'NONE', ( #135, #104 ), #338, .T. ) ;
#266 = DIRECTION ( 'NONE',  ( -3.491481338843133355E-15, 0.000000000000000000, -1.000000000000000000 ) ) ;
#267 = CARTESIAN_POINT ( 'NONE',  ( 1.571166602479406657E-15, 0.000000000000000000, 0.4499999999999990119 ) ) ;
#268 = CARTESIAN_POINT ( 'NONE',  ( 0.5040741737109462051, 0.000000000000000000, 4.858819045102510614 ) ) ;
#269 = DIRECTION ( 'NONE',  ( -1.000000000000000000, 0.000000000000000000, 3.543144354527792031E-15 ) ) ;
#270 = AXIS2_PLACEMENT_3D ( 'NONE', #75, #221, #200 ) ;
#271 = CARTESIAN_POINT ( 'NONE',  ( 0.4700000000000028044, 0.000000000000000000, 0.8000000000000004885 ) ) ;
#272 = CC_DESIGN_SECURITY_CLASSIFICATION ( #126, ( #167 ) ) ;
#273 = ORIENTED_EDGE ( 'NONE', *, *, #181, .F. ) ;
#274 = CALENDAR_DATE ( 2023, 27, 9 ) ;
#275 = VERTEX_POINT ( 'NONE', #271 ) ;
#276 = VERTEX_POINT ( 'NONE', #278 ) ;
#277 = COORDINATED_UNIVERSAL_TIME_OFFSET ( 1, 0, .AHEAD. ) ;
#278 = CARTESIAN_POINT ( 'NONE',  ( 0.5340598923241498541, 0.000000000000000000, 0.4499999999999971800 ) ) ;
#279 = PERSON_AND_ORGANIZATION ( #36, #93 ) ;
#280 = ADVANCED_FACE ( 'NONE', ( #76, #311 ), #357, .T. ) ;
#281 = APPROVAL_STATUS ( 'not_yet_approved' ) ;
#282 = CIRCLE ( 'NONE', #215, 0.5340598923241482998 ) ;
#283 = CYLINDRICAL_SURFACE ( 'NONE', #270, 0.5340598923241482998 ) ;
#284 = CC_DESIGN_PERSON_AND_ORGANIZATION_ASSIGNMENT ( #370, #98, ( #167 ) ) ;
#285 = DIRECTION ( 'NONE',  ( 1.000000000000000000, 0.000000000000000000, -3.491481338843133750E-15 ) ) ;
#286 = DIRECTION ( 'NONE',  ( 1.000000000000000000, 0.000000000000000000, -3.491481338843133750E-15 ) ) ;
#287 = APPROVAL_ROLE ( '' ) ;
#288 = ADVANCED_FACE ( 'NONE', ( #49, #130 ), #377, .F. ) ;
#289 = AXIS2_PLACEMENT_3D ( 'NONE', #332, #322, #175 ) ;
#290 = DIRECTION ( 'NONE',  ( 3.491481338843133355E-15, -0.000000000000000000, 1.000000000000000000 ) ) ;
#291 = DIRECTION ( 'NONE',  ( 3.491481338843133355E-15, -0.000000000000000000, 1.000000000000000000 ) ) ;
#292 = EDGE_LOOP ( 'NONE', ( #48 ) ) ;
#293 = ADVANCED_FACE ( 'NONE', ( #139, #380 ), #190, .F. ) ;
#294 = ORIENTED_EDGE ( 'NONE', *, *, #153, .F. ) ;
#295 = AXIS2_PLACEMENT_3D ( 'NONE', #198, #47, #312 ) ;
#296 = ORIENTED_EDGE ( 'NONE', *, *, #340, .T. ) ;
#297 = ORIENTED_EDGE ( 'NONE', *, *, #122, .T. ) ;
#298 = FACE_OUTER_BOUND ( 'NONE', #378, .T. ) ;
#299 = DIRECTION ( 'NONE',  ( 1.000000000000000000, 0.000000000000000000, -3.469446951953614189E-15 ) ) ;
#300 = ORIENTED_EDGE ( 'NONE', *, *, #1, .T. ) ;
#301 = CARTESIAN_POINT ( 'NONE',  ( 0.5340598923241508533, 0.000000000000000000, 0.7499999999999987788 ) ) ;
#302 = EDGE_LOOP ( 'NONE', ( #142 ) ) ;
#303 = CIRCLE ( 'NONE', #333, 0.4699999999999994738 ) ;
#304 = FACE_OUTER_BOUND ( 'NONE', #184, .T. ) ;
#305 = VERTEX_POINT ( 'NONE', #30 ) ;
#306 = PERSON_AND_ORGANIZATION_ROLE ( 'design_owner' ) ;
#307 = EDGE_CURVE ( 'NONE', #19, #19, #247, .T. ) ;
#308 = FACE_OUTER_BOUND ( 'NONE', #16, .T. ) ;
#309 = DATE_AND_TIME ( #194, #226 ) ;
#310 = AXIS2_PLACEMENT_3D ( 'NONE', #237, #114, #360 ) ;
#311 = FACE_OUTER_BOUND ( 'NONE', #209, .T. ) ;
#312 = DIRECTION ( 'NONE',  ( -1.000000000000000000, 0.000000000000000000, 3.507712910982514253E-15 ) ) ;
#313 = DIRECTION ( 'NONE',  ( 3.491481338843133355E-15, -0.000000000000000000, 1.000000000000000000 ) ) ;
#314 = APPROVAL_STATUS ( 'not_yet_approved' ) ;
#315 = FACE_OUTER_BOUND ( 'NONE', #238, .T. ) ;
#316 = AXIS2_PLACEMENT_3D ( 'NONE', #231, #70, #345 ) ;
#317 = CARTESIAN_POINT ( 'NONE',  ( 1.316288464743861212E-13, 0.000000000000000000, 37.69999999999999574 ) ) ;
#318 = EDGE_LOOP ( 'NONE', ( #140 ) ) ;
#319 = ADVANCED_FACE ( 'NONE', ( #328, #86 ), #82, .T. ) ;
#320 = CARTESIAN_POINT ( 'NONE',  ( 1.500000000000029976, 0.000000000000000000, 8.575664829383434551 ) ) ;
#321 = ORIENTED_EDGE ( 'NONE', *, *, #220, .T. ) ;
#322 = DIRECTION ( 'NONE',  ( 3.491481338843133355E-15, -0.000000000000000000, 1.000000000000000000 ) ) ;
#323 = CARTESIAN_POINT ( 'NONE',  ( 2.994177371996566791E-14, 0.000000000000000000, 8.575664829383439880 ) ) ;
#324 = EDGE_LOOP ( 'NONE', ( #361 ) ) ;
#325 = PRODUCT_DEFINITION_SHAPE ( 'NONE', 'NONE',  #217 ) ;
#326 = CONICAL_SURFACE ( 'NONE', #12, 0.5340598923241482998, 1.047197551196603182 ) ;
#327 = CARTESIAN_POINT ( 'NONE',  ( 2.618611004132352383E-15, 0.000000000000000000, 0.7500000000000006661 ) ) ;
#328 = FACE_OUTER_BOUND ( 'NONE', #22, .T. ) ;
#329 = EDGE_LOOP ( 'NONE', ( #108 ) ) ;
#330 = VERTEX_POINT ( 'NONE', #268 ) ;
#331 = ORIENTED_EDGE ( 'NONE', *, *, #132, .F. ) ;
#332 = CARTESIAN_POINT ( 'NONE',  ( 7.564876234160016431E-16, 0.000000000000000000, 0.2166666666666636210 ) ) ;
#333 = AXIS2_PLACEMENT_3D ( 'NONE', #178, #263, #18 ) ;
#334 = CARTESIAN_POINT ( 'NONE',  ( 0.7650000000000022338, 0.000000000000000000, 0.6166666666666654750 ) ) ;
#335 = APPLICATION_CONTEXT ( 'configuration controlled 3d designs of mechanical parts and assemblies' ) ;
#336 = PERSON_AND_ORGANIZATION ( #36, #93 ) ;
#337 = CONICAL_SURFACE ( 'NONE', #339, 0.7650000000000000133, 1.047197551196603182 ) ;
#338 = CYLINDRICAL_SURFACE ( 'NONE', #316, 0.4699999999999996958 ) ;
#339 = AXIS2_PLACEMENT_3D ( 'NONE', #382, #266, #269 ) ;
#340 = EDGE_CURVE ( 'NONE', #276, #276, #282, .T. ) ;
#341 = DIRECTION ( 'NONE',  ( 1.000000000000000000, 0.000000000000000000, -3.543144354527792031E-15 ) ) ;
#342 = DIRECTION ( 'NONE',  ( -3.491481338843133355E-15, 0.000000000000000000, -1.000000000000000000 ) ) ;
#343 = CALENDAR_DATE ( 2023, 27, 9 ) ;
#344 = DIRECTION ( 'NONE',  ( 1.000000000000000000, 0.000000000000000000, 0.000000000000000000 ) ) ;
#345 = DIRECTION ( 'NONE',  ( 1.000000000000000000, 0.000000000000000000, 0.000000000000000000 ) ) ;
#346 = EDGE_CURVE ( 'NONE', #259, #259, #38, .T. ) ;
#347 = EDGE_LOOP ( 'NONE', ( #59 ) ) ;
#348 = FACE_BOUND ( 'NONE', #302, .T. ) ;
#349 = LOCAL_TIME ( 7, 49, 6.000000000000000000, #2 ) ;
#350 = UNCERTAINTY_MEASURE_WITH_UNIT (LENGTH_MEASURE( 1.000000000000000082E-05 ), #158, 'distance_accuracy_value', 'NONE');
#351 = ORIENTED_EDGE ( 'NONE', *, *, #181, .T. ) ;
#352 = APPROVAL ( #281, 'UNSPECIFIED' ) ;
#353 = DIRECTION ( 'NONE',  ( 1.000000000000000000, 0.000000000000000000, -3.451192871279424170E-15 ) ) ;
#354 = CARTESIAN_POINT ( 'NONE',  ( 0.7650000000000007905, 0.000000000000000000, 0.2166666666666609287 ) ) ;
#355 = EDGE_LOOP ( 'NONE', ( #80 ) ) ;
#356 = CLOSED_SHELL ( 'NONE', ( #191, #168, #66, #205, #236, #244, #358, #101, #170, #288, #265, #293, #137, #319, #280, #373 ) ) ;
#357 = CONICAL_SURFACE ( 'NONE', #379, 1.499999999999996447, 0.7853981633974501664 ) ;
#358 = ADVANCED_FACE ( 'NONE', ( #304, #214 ), #363, .T. ) ;
#359 = FACE_OUTER_BOUND ( 'NONE', #318, .T. ) ;
#360 = DIRECTION ( 'NONE',  ( -1.000000000000000000, 0.000000000000000000, 3.491481338843133355E-15 ) ) ;
#361 = ORIENTED_EDGE ( 'NONE', *, *, #187, .T. ) ;
#362 = EDGE_LOOP ( 'NONE', ( #105 ) ) ;
#363 = CYLINDRICAL_SURFACE ( 'NONE', #248, 0.7650000000000000133 ) ;
#364 = DIRECTION ( 'NONE',  ( 3.491481338843133355E-15, -0.000000000000000000, 1.000000000000000000 ) ) ;
#365 = CC_DESIGN_DATE_AND_TIME_ASSIGNMENT ( #249, #219, ( #126 ) ) ;
#366 = DATE_AND_TIME ( #246, #368 ) ;
#367 = CONICAL_SURFACE ( 'NONE', #295, 0.7650000000000000133, 1.047197551196580534 ) ;
#368 = LOCAL_TIME ( 7, 49, 6.000000000000000000, #277 ) ;
#369 = DIRECTION ( 'NONE',  ( 1.000000000000000000, 0.000000000000000000, -3.451192871279424170E-15 ) ) ;
#370 = PERSON_AND_ORGANIZATION ( #36, #93 ) ;
#371 = DIRECTION ( 'NONE',  ( 3.491481338843133355E-15, -0.000000000000000000, 1.000000000000000000 ) ) ;
#372 = AXIS2_PLACEMENT_3D ( 'NONE', #376, #227, #5 ) ;
#373 = ADVANCED_FACE ( 'NONE', ( #111 ), #143, .F. ) ;
#374 = FACE_OUTER_BOUND ( 'NONE', #385, .T. ) ;
#375 = CARTESIAN_POINT ( 'NONE',  ( 2.153080158953270565E-15, 0.000000000000000000, 0.6166666666666681396 ) ) ;
#376 = CARTESIAN_POINT ( 'NONE',  ( 1.316288464743861212E-13, 0.000000000000000000, 37.69999999999999574 ) ) ;
#377 = PLANE ( 'NONE',  #26 ) ;
#378 = EDGE_LOOP ( 'NONE', ( #351 ) ) ;
#379 = AXIS2_PLACEMENT_3D ( 'NONE', #317, #342, #228 ) ;
#380 = FACE_OUTER_BOUND ( 'NONE', #292, .T. ) ;
#381 = ADVANCED_BREP_SHAPE_REPRESENTATION ( '953222', ( #171, #395 ), #207 ) ;
#382 = CARTESIAN_POINT ( 'NONE',  ( 2.153080158953270565E-15, 0.000000000000000000, 0.6166666666666681396 ) ) ;
#383 = PRODUCT ( '953222', '953222', '', ( #25 ) ) ;
#384 = CARTESIAN_POINT ( 'NONE',  ( 1.326762908760390423E-13, 0.000000000000000000, 38.00000000000000000 ) ) ;
#385 = EDGE_LOOP ( 'NONE', ( #208 ) ) ;
#386 = DIRECTION ( 'NONE',  ( 3.491481338843133355E-15, -0.000000000000000000, 1.000000000000000000 ) ) ;
#387 = AXIS2_PLACEMENT_3D ( 'NONE', #193, #159, #133 ) ;
#388 = APPROVAL_PERSON_ORGANIZATION ( #67, #154, #287 ) ;
#389 = DIRECTION ( 'NONE',  ( 3.491481338843133355E-15, -0.000000000000000000, 1.000000000000000000 ) ) ;
#390 = CARTESIAN_POINT ( 'NONE',  ( 1.696447602479103295E-14, 0.000000000000000000, 4.858819045102512391 ) ) ;
#391 = VERTEX_POINT ( 'NONE', #176 ) ;
#392 = CARTESIAN_POINT ( 'NONE',  ( 0.000000000000000000, 0.000000000000000000, 0.000000000000000000 ) ) ;
#393 = CIRCLE ( 'NONE', #289, 0.7650000000000000133 ) ;
#394 = AXIS2_PLACEMENT_3D ( 'NONE', #7, #224, #10 ) ;
#395 = AXIS2_PLACEMENT_3D ( 'NONE', #392, #34, #120 ) ;
ENDSEC;
END-ISO-10303-21;
