ISO-10303-21;
HEADER;
FILE_DESCRIPTION (( 'STEP AP203' ),
    '1' );
FILE_NAME ('953221.step',
    '2023-09-27T05:49:06',
    ( '' ),
    ( '' ),
    'SwSTEP 2.0',
    'SolidWorks 2022',
    '' );
FILE_SCHEMA (( 'CONFIG_CONTROL_DESIGN' ));
ENDSEC;

DATA;
#1 = CYLINDRICAL_SURFACE ( 'NONE', #321, 0.6949999999999999512 ) ;
#2 = ADVANCED_FACE ( 'NONE', ( #134, #113 ), #14, .T. ) ;
#3 = PERSON_AND_ORGANIZATION ( #191, #280 ) ;
#4 = DIRECTION ( 'NONE',  ( 1.000000000000000000, 0.000000000000000000, 0.000000000000000000 ) ) ;
#5 = PERSON_AND_ORGANIZATION ( #191, #280 ) ;
#6 = ADVANCED_FACE ( 'NONE', ( #292, #16 ), #19, .T. ) ;
#7 = CARTESIAN_POINT ( 'NONE',  ( -2.869234300466720926E-33, 0.000000000000000000, -8.217813649885960780E-19 ) ) ;
#8 = CARTESIAN_POINT ( 'NONE',  ( 1.316288464743861212E-13, 0.000000000000000000, 37.69999999999999574 ) ) ;
#9 = AXIS2_PLACEMENT_3D ( 'NONE', #328, #126, #208 ) ;
#10 = APPROVAL_STATUS ( 'not_yet_approved' ) ;
#11 = EDGE_CURVE ( 'NONE', #379, #379, #225, .T. ) ;
#12 = ORIENTED_EDGE ( 'NONE', *, *, #220, .F. ) ;
#13 = EDGE_CURVE ( 'NONE', #52, #52, #167, .T. ) ;
#14 = CONICAL_SURFACE ( 'NONE', #367, 0.6949999999999999512, 1.047197551196596743 ) ;
#15 = DIRECTION ( 'NONE',  ( 1.000000000000000000, 0.000000000000000000, 0.000000000000000000 ) ) ;
#16 = FACE_OUTER_BOUND ( 'NONE', #168, .T. ) ;
#17 = DIRECTION ( 'NONE',  ( -3.491481338843133355E-15, 0.000000000000000000, -1.000000000000000000 ) ) ;
#18 = AXIS2_PLACEMENT_3D ( 'NONE', #267, #54, #325 ) ;
#19 = CYLINDRICAL_SURFACE ( 'NONE', #340, 0.6949999999999998401 ) ;
#20 = DIRECTION ( 'NONE',  ( 1.000000000000000000, 0.000000000000000000, -3.614007241618348376E-15 ) ) ;
#21 = VERTEX_POINT ( 'NONE', #265 ) ;
#22 = VERTEX_POINT ( 'NONE', #231 ) ;
#23 = CARTESIAN_POINT ( 'NONE',  ( 1.326762908760390423E-13, 0.000000000000000000, 38.00000000000000000 ) ) ;
#24 = CIRCLE ( 'NONE', #55, 0.4929274057836297573 ) ;
#25 = CC_DESIGN_SECURITY_CLASSIFICATION ( #285, ( #246 ) ) ;
#26 = EDGE_LOOP ( 'NONE', ( #283 ) ) ;
#27 = CARTESIAN_POINT ( 'NONE',  ( 2.444036937190190588E-15, 0.000000000000000000, 0.6999999999999992895 ) ) ;
#28 = FACE_OUTER_BOUND ( 'NONE', #260, .T. ) ;
#29 = CARTESIAN_POINT ( 'NONE',  ( 1.500000000000028866, 0.000000000000000000, 8.262267369761886471 ) ) ;
#30 = DIRECTION ( 'NONE',  ( 1.000000000000000000, 0.000000000000000000, -3.432006876932533006E-15 ) ) ;
#31 = CALENDAR_DATE ( 2023, 27, 9 ) ;
#32 = CIRCLE ( 'NONE', #121, 0.4929274057836297573 ) ;
#33 = DIRECTION ( 'NONE',  ( 1.000000000000000000, 0.000000000000000000, 0.000000000000000000 ) ) ;
#34 = APPLICATION_PROTOCOL_DEFINITION ( 'international standard', 'config_control_design', 1994, #195 ) ;
#35 = DIRECTION ( 'NONE',  ( 3.491481338843133355E-15, -0.000000000000000000, 1.000000000000000000 ) ) ;
#36 = DATE_AND_TIME ( #31, #200 ) ;
#37 = DIRECTION ( 'NONE',  ( 3.491481338843133355E-15, -0.000000000000000000, 1.000000000000000000 ) ) ;
#38 = APPROVAL ( #10, 'UNSPECIFIED' ) ;
#39 = CALENDAR_DATE ( 2023, 27, 9 ) ;
#40 = CARTESIAN_POINT ( 'NONE',  ( 1.326762908760390423E-13, 0.000000000000000000, 38.00000000000000000 ) ) ;
#41 = CIRCLE ( 'NONE', #158, 0.4929274057836297573 ) ;
#42 = CIRCLE ( 'NONE', #94, 1.199999999999993516 ) ;
#43 = ORIENTED_EDGE ( 'NONE', *, *, #145, .F. ) ;
#44 = APPROVAL_DATE_TIME ( #371, #38 ) ;
#45 = ADVANCED_FACE ( 'NONE', ( #177, #304 ), #156, .T. ) ;
#46 = CYLINDRICAL_SURFACE ( 'NONE', #360, 0.4929274057836297573 ) ;
#47 = FACE_OUTER_BOUND ( 'NONE', #180, .T. ) ;
#48 = EDGE_LOOP ( 'NONE', ( #72 ) ) ;
#49 = ORIENTED_EDGE ( 'NONE', *, *, #84, .T. ) ;
#50 = CARTESIAN_POINT ( 'NONE',  ( 0.6950000000000016165, 0.000000000000000000, 0.5104166666666636321 ) ) ;
#51 = ORIENTED_EDGE ( 'NONE', *, *, #133, .T. ) ;
#52 = VERTEX_POINT ( 'NONE', #107 ) ;
#53 = CC_DESIGN_DATE_AND_TIME_ASSIGNMENT ( #36, #61, ( #81 ) ) ;
#54 = DIRECTION ( 'NONE',  ( -3.491481338843133355E-15, 0.000000000000000000, -1.000000000000000000 ) ) ;
#55 = AXIS2_PLACEMENT_3D ( 'NONE', #309, #391, #93 ) ;
#56 = CIRCLE ( 'NONE', #213, 1.500000000000000000 ) ;
#57 = DIRECTION ( 'NONE',  ( 1.000000000000000000, 0.000000000000000000, -3.820352656923314831E-15 ) ) ;
#58 = COORDINATED_UNIVERSAL_TIME_OFFSET ( 1, 0, .AHEAD. ) ;
#59 = CARTESIAN_POINT ( 'NONE',  ( 1.883945139084117760E-15, 0.000000000000000000, 0.5395833333333364124 ) ) ;
#60 = CARTESIAN_POINT ( 'NONE',  ( 1.883945139084117760E-15, 0.000000000000000000, 0.5395833333333364124 ) ) ;
#61 = DATE_TIME_ROLE ( 'creation_date' ) ;
#62 = DIRECTION ( 'NONE',  ( 3.491481338843133355E-15, -0.000000000000000000, 1.000000000000000000 ) ) ;
#63 = DIRECTION ( 'NONE',  ( 3.491481338843133355E-15, -0.000000000000000000, 1.000000000000000000 ) ) ;
#64 = CC_DESIGN_APPROVAL ( #38, ( #285 ) ) ;
#65 = COORDINATED_UNIVERSAL_TIME_OFFSET ( 1, 0, .AHEAD. ) ;
#66 = CARTESIAN_POINT ( 'NONE',  ( 1.521873535536946627E-14, 0.000000000000000000, 4.358819045102511502 ) ) ;
#67 = DIRECTION ( 'NONE',  ( 3.491481338843133355E-15, -0.000000000000000000, 1.000000000000000000 ) ) ;
#68 = DIRECTION ( 'NONE',  ( -3.491481338843133355E-15, 0.000000000000000000, -1.000000000000000000 ) ) ;
#69 = EDGE_LOOP ( 'NONE', ( #141 ) ) ;
#70 = AXIS2_PLACEMENT_3D ( 'NONE', #27, #144, #20 ) ;
#71 = EDGE_CURVE ( 'NONE', #381, #381, #24, .T. ) ;
#72 = ORIENTED_EDGE ( 'NONE', *, *, #11, .T. ) ;
#73 = CARTESIAN_POINT ( 'NONE',  ( 2.444036937190193349E-15, 0.4929274057836297573, 0.6999999999999999556 ) ) ;
#74 = AXIS2_PLACEMENT_3D ( 'NONE', #73, #17, #318 ) ;
#75 = ORIENTED_EDGE ( 'NONE', *, *, #109, .F. ) ;
#76 = PRODUCT_RELATED_PRODUCT_CATEGORY ( 'detail', '', ( #383 ) ) ;
#77 = CARTESIAN_POINT ( 'NONE',  ( 1.200000000000126299, 0.000000000000000000, 37.99999999999999289 ) ) ;
#78 = EDGE_LOOP ( 'NONE', ( #118 ) ) ;
#79 = EDGE_LOOP ( 'NONE', ( #111 ) ) ;
#80 = CONICAL_SURFACE ( 'NONE', #18, 1.499999999999996447, 0.7853981633974501664 ) ;
#81 = PRODUCT_DEFINITION ( 'UNKNOWN', '', #246, #281 ) ;
#82 = EDGE_LOOP ( 'NONE', ( #143 ) ) ;
#83 = ORIENTED_EDGE ( 'NONE', *, *, #109, .T. ) ;
#84 = EDGE_CURVE ( 'NONE', #348, #348, #41, .T. ) ;
#85 = DIRECTION ( 'NONE',  ( 3.491481338843133355E-15, -0.000000000000000000, 1.000000000000000000 ) ) ;
#86 =( LENGTH_UNIT ( ) NAMED_UNIT ( * ) SI_UNIT ( .MILLI., .METRE. ) );
#87 = AXIS2_PLACEMENT_3D ( 'NONE', #105, #287, #313 ) ;
#88 = DIRECTION ( 'NONE',  ( 1.000000000000000000, 0.000000000000000000, -3.519227082168490994E-15 ) ) ;
#89 = FACE_BOUND ( 'NONE', #377, .T. ) ;
#90 = FACE_OUTER_BOUND ( 'NONE', #69, .T. ) ;
#91 = COORDINATED_UNIVERSAL_TIME_OFFSET ( 1, 0, .AHEAD. ) ;
#92 = DIRECTION ( 'NONE',  ( 3.491481338843133355E-15, -0.000000000000000000, 1.000000000000000000 ) ) ;
#93 = DIRECTION ( 'NONE',  ( 1.000000000000000000, 0.000000000000000000, -3.519227082168490994E-15 ) ) ;
#94 = AXIS2_PLACEMENT_3D ( 'NONE', #23, #223, #268 ) ;
#95 = VERTEX_POINT ( 'NONE', #29 ) ;
#96 = DIRECTION ( 'NONE',  ( 1.000000000000000000, 0.000000000000000000, -3.491481338843133355E-15 ) ) ;
#97 = FACE_BOUND ( 'NONE', #388, .T. ) ;
#98 = CARTESIAN_POINT ( 'NONE',  ( 0.6950000000000005063, 0.000000000000000000, 0.1604166666666673735 ) ) ;
#99 = ADVANCED_FACE ( 'NONE', ( #234 ), #333, .F. ) ;
#100 = AXIS2_PLACEMENT_3D ( 'NONE', #114, #85, #57 ) ;
#101 = APPLICATION_CONTEXT ( 'configuration controlled 3d designs of mechanical parts and assemblies' ) ;
#102 = EDGE_LOOP ( 'NONE', ( #339 ) ) ;
#103 = CC_DESIGN_DATE_AND_TIME_ASSIGNMENT ( #390, #254, ( #285 ) ) ;
#104 = AXIS2_PLACEMENT_3D ( 'NONE', #338, #336, #33 ) ;
#105 = CARTESIAN_POINT ( 'NONE',  ( 1.069266160020712943E-15, 0.000000000000000000, 0.3062500000000009659 ) ) ;
#106 = ORIENTED_EDGE ( 'NONE', *, *, #266, .T. ) ;
#107 = CARTESIAN_POINT ( 'NONE',  ( 1.500000000000127898, 0.000000000000000000, 37.69999999999998863 ) ) ;
#108 = ORIENTED_EDGE ( 'NONE', *, *, #351, .T. ) ;
#109 = EDGE_CURVE ( 'NONE', #322, #322, #393, .T. ) ;
#110 =( GEOMETRIC_REPRESENTATION_CONTEXT ( 3 ) GLOBAL_UNCERTAINTY_ASSIGNED_CONTEXT ( ( #160 ) ) GLOBAL_UNIT_ASSIGNED_CONTEXT ( ( #86, #150, #204 ) ) REPRESENTATION_CONTEXT ( 'NONE', 'WORKASPACE' ) );
#111 = ORIENTED_EDGE ( 'NONE', *, *, #343, .F. ) ;
#112 = DIRECTION ( 'NONE',  ( 1.000000000000000000, 0.000000000000000000, -3.519227082168490994E-15 ) ) ;
#113 = FACE_OUTER_BOUND ( 'NONE', #82, .T. ) ;
#114 = CARTESIAN_POINT ( 'NONE',  ( 1.521873535536946627E-14, 0.000000000000000000, 4.358819045102511502 ) ) ;
#115 = PERSON_AND_ORGANIZATION_ROLE ( 'creator' ) ;
#116 = CC_DESIGN_PERSON_AND_ORGANIZATION_ASSIGNMENT ( #243, #363, ( #246 ) ) ;
#117 = FACE_BOUND ( 'NONE', #186, .T. ) ;
#118 = ORIENTED_EDGE ( 'NONE', *, *, #286, .T. ) ;
#119 = FACE_BOUND ( 'NONE', #102, .T. ) ;
#120 = CALENDAR_DATE ( 2023, 27, 9 ) ;
#121 = AXIS2_PLACEMENT_3D ( 'NONE', #300, #302, #112 ) ;
#122 = CC_DESIGN_APPROVAL ( #185, ( #81 ) ) ;
#123 = DIRECTION ( 'NONE',  ( 1.000000000000000000, 0.000000000000000000, -3.820352656923314831E-15 ) ) ;
#124 = PERSON_AND_ORGANIZATION_ROLE ( 'design_owner' ) ;
#125 = DIRECTION ( 'NONE',  ( 3.491481338843133355E-15, -0.000000000000000000, 1.000000000000000000 ) ) ;
#126 = DIRECTION ( 'NONE',  ( 3.491481338843133355E-15, -0.000000000000000000, 1.000000000000000000 ) ) ;
#127 = CC_DESIGN_PERSON_AND_ORGANIZATION_ASSIGNMENT ( #5, #115, ( #81 ) ) ;
#128 = CALENDAR_DATE ( 2023, 27, 9 ) ;
#129 = CARTESIAN_POINT ( 'NONE',  ( 1.326762908760390423E-13, 1.199999999999993516, 38.00000000000000000 ) ) ;
#130 = DIRECTION ( 'NONE',  ( 3.491481338843133355E-15, -0.000000000000000000, 1.000000000000000000 ) ) ;
#131 = EDGE_LOOP ( 'NONE', ( #352 ) ) ;
#132 = ORIENTED_EDGE ( 'NONE', *, *, #71, .T. ) ;
#133 = EDGE_CURVE ( 'NONE', #169, #169, #212, .T. ) ;
#134 = FACE_BOUND ( 'NONE', #319, .T. ) ;
#135 = AXIS2_PLACEMENT_3D ( 'NONE', #129, #68, #366 ) ;
#136 = CYLINDRICAL_SURFACE ( 'NONE', #192, 0.4929274057836297573 ) ;
#137 = ADVANCED_FACE ( 'NONE', ( #90, #97 ), #272, .T. ) ;
#138 = CARTESIAN_POINT ( 'NONE',  ( 1.326762908760390423E-13, 0.000000000000000000, 38.00000000000000000 ) ) ;
#139 = ORIENTED_EDGE ( 'NONE', *, *, #133, .F. ) ;
#140 = EDGE_CURVE ( 'NONE', #22, #22, #305, .T. ) ;
#141 = ORIENTED_EDGE ( 'NONE', *, *, #206, .F. ) ;
#142 = APPROVAL_PERSON_ORGANIZATION ( #209, #185, #330 ) ;
#143 = ORIENTED_EDGE ( 'NONE', *, *, #145, .T. ) ;
#144 = DIRECTION ( 'NONE',  ( 3.491481338843133355E-15, -0.000000000000000000, 1.000000000000000000 ) ) ;
#145 = EDGE_CURVE ( 'NONE', #261, #261, #345, .T. ) ;
#146 = CARTESIAN_POINT ( 'NONE',  ( 1.431507348925684360E-14, 0.000000000000000000, 4.099999999999999645 ) ) ;
#147 = DIRECTION ( 'NONE',  ( 3.491481338843133355E-15, -0.000000000000000000, 1.000000000000000000 ) ) ;
#148 = CARTESIAN_POINT ( 'NONE',  ( 1.374770777169477842E-15, 0.000000000000000000, 0.3937499999999982681 ) ) ;
#149 = VERTEX_POINT ( 'NONE', #240 ) ;
#150 =( NAMED_UNIT ( * ) PLANE_ANGLE_UNIT ( ) SI_UNIT ( $, .RADIAN. ) );
#151 = CARTESIAN_POINT ( 'NONE',  ( 1.782110266701180152E-15, 0.000000000000000000, 0.5104166666666659635 ) ) ;
#152 = SECURITY_CLASSIFICATION_LEVEL ( 'unclassified' ) ;
#153 = FACE_OUTER_BOUND ( 'NONE', #131, .T. ) ;
#154 = CC_DESIGN_PERSON_AND_ORGANIZATION_ASSIGNMENT ( #175, #124, ( #383 ) ) ;
#155 = DATE_AND_TIME ( #128, #273 ) ;
#156 = CYLINDRICAL_SURFACE ( 'NONE', #104, 0.4199999999999997069 ) ;
#157 = MECHANICAL_CONTEXT ( 'NONE', #195, 'mechanical' ) ;
#158 = AXIS2_PLACEMENT_3D ( 'NONE', #362, #359, #205 ) ;
#159 = DIRECTION ( 'NONE',  ( 3.491481338843133355E-15, -0.000000000000000000, 1.000000000000000000 ) ) ;
#160 = UNCERTAINTY_MEASURE_WITH_UNIT (LENGTH_MEASURE( 1.000000000000000082E-05 ), #86, 'distance_accuracy_value', 'NONE');
#161 = ORIENTED_EDGE ( 'NONE', *, *, #84, .F. ) ;
#162 = CONICAL_SURFACE ( 'NONE', #198, 0.4929274057836297573, 1.047197551196596299 ) ;
#163 = DIRECTION ( 'NONE',  ( 3.491481338843133355E-15, -0.000000000000000000, 1.000000000000000000 ) ) ;
#164 = FACE_OUTER_BOUND ( 'NONE', #298, .T. ) ;
#165 = ADVANCED_FACE ( 'NONE', ( #28, #117 ), #162, .T. ) ;
#166 = ORIENTED_EDGE ( 'NONE', *, *, #351, .F. ) ;
#167 = CIRCLE ( 'NONE', #219, 1.499999999999996447 ) ;
#168 = EDGE_LOOP ( 'NONE', ( #83 ) ) ;
#169 = VERTEX_POINT ( 'NONE', #294 ) ;
#170 = ORIENTED_EDGE ( 'NONE', *, *, #347, .T. ) ;
#171 = APPROVAL_DATE_TIME ( #155, #316 ) ;
#172 = CARTESIAN_POINT ( 'NONE',  ( 0.000000000000000000, 0.000000000000000000, 0.000000000000000000 ) ) ;
#173 = APPLICATION_PROTOCOL_DEFINITION ( 'international standard', 'config_control_design', 1994, #101 ) ;
#174 = AXIS2_PLACEMENT_3D ( 'NONE', #146, #279, #269 ) ;
#175 = PERSON_AND_ORGANIZATION ( #191, #280 ) ;
#176 = DIRECTION ( 'NONE',  ( 1.000000000000000000, 0.000000000000000000, -3.432006876932533006E-15 ) ) ;
#177 = FACE_OUTER_BOUND ( 'NONE', #378, .T. ) ;
#178 = FACE_OUTER_BOUND ( 'NONE', #295, .T. ) ;
#179 = CALENDAR_DATE ( 2023, 27, 9 ) ;
#180 = EDGE_LOOP ( 'NONE', ( #385 ) ) ;
#181 = CIRCLE ( 'NONE', #70, 0.4199999999999999845 ) ;
#182 = EDGE_LOOP ( 'NONE', ( #323 ) ) ;
#183 = APPROVAL_ROLE ( '' ) ;
#184 = PLANE ( 'NONE',  #245 ) ;
#185 = APPROVAL ( #207, 'UNSPECIFIED' ) ;
#186 = EDGE_LOOP ( 'NONE', ( #49 ) ) ;
#187 = PLANE ( 'NONE',  #74 ) ;
#188 = ADVANCED_FACE ( 'NONE', ( #394, #153 ), #1, .T. ) ;
#189 = CARTESIAN_POINT ( 'NONE',  ( 6.619266704890104357E-16, 0.000000000000000000, 0.1895833333333332704 ) ) ;
#190 = DIRECTION ( 'NONE',  ( 1.000000000000000000, 0.000000000000000000, 0.000000000000000000 ) ) ;
#191 = PERSON ( 'UNSPECIFIED', 'UNSPECIFIED', 'UNSPECIFIED', ('UNSPECIFIED'), ('UNSPECIFIED'), ('UNSPECIFIED') ) ;
#192 = AXIS2_PLACEMENT_3D ( 'NONE', #40, #130, #190 ) ;
#193 = CARTESIAN_POINT ( 'NONE',  ( 0.4929274057836312006, 0.000000000000000000, 0.3937499999999965472 ) ) ;
#194 = EDGE_LOOP ( 'NONE', ( #196 ) ) ;
#195 = APPLICATION_CONTEXT ( 'configuration controlled 3d designs of mechanical parts and assemblies' ) ;
#196 = ORIENTED_EDGE ( 'NONE', *, *, #11, .F. ) ;
#197 = EDGE_LOOP ( 'NONE', ( #51 ) ) ;
#198 = AXIS2_PLACEMENT_3D ( 'NONE', #148, #35, #88 ) ;
#199 = FACE_OUTER_BOUND ( 'NONE', #194, .T. ) ;
#200 = LOCAL_TIME ( 7, 49, 6.000000000000000000, #91 ) ;
#201 = APPROVAL_ROLE ( '' ) ;
#202 = CARTESIAN_POINT ( 'NONE',  ( 1.326762908760390423E-13, 0.000000000000000000, 38.00000000000000000 ) ) ;
#203 = FACE_OUTER_BOUND ( 'NONE', #372, .T. ) ;
#204 =( NAMED_UNIT ( * ) SI_UNIT ( $, .STERADIAN. ) SOLID_ANGLE_UNIT ( ) );
#205 = DIRECTION ( 'NONE',  ( 1.000000000000000000, 0.000000000000000000, -3.519227082168490994E-15 ) ) ;
#206 = EDGE_CURVE ( 'NONE', #337, #337, #326, .T. ) ;
#207 = APPROVAL_STATUS ( 'not_yet_approved' ) ;
#208 = DIRECTION ( 'NONE',  ( 1.000000000000000000, 0.000000000000000000, -3.510007033226453485E-15 ) ) ;
#209 = PERSON_AND_ORGANIZATION ( #191, #280 ) ;
#210 = DIRECTION ( 'NONE',  ( 1.000000000000000000, 0.000000000000000000, -4.625929269271496366E-15 ) ) ;
#211 = ORIENTED_EDGE ( 'NONE', *, *, #13, .T. ) ;
#212 = CIRCLE ( 'NONE', #174, 0.4199999999999993738 ) ;
#213 = AXIS2_PLACEMENT_3D ( 'NONE', #350, #147, #356 ) ;
#214 = EDGE_LOOP ( 'NONE', ( #12 ) ) ;
#215 = PERSON_AND_ORGANIZATION ( #191, #280 ) ;
#216 = EDGE_LOOP ( 'NONE', ( #43 ) ) ;
#217 = FACE_BOUND ( 'NONE', #79, .T. ) ;
#218 = CARTESIAN_POINT ( 'NONE',  ( 1.326762908760390423E-13, 0.000000000000000000, 38.00000000000000000 ) ) ;
#219 = AXIS2_PLACEMENT_3D ( 'NONE', #8, #364, #210 ) ;
#220 = EDGE_CURVE ( 'NONE', #149, #149, #236, .T. ) ;
#221 = EDGE_LOOP ( 'NONE', ( #344 ) ) ;
#222 = VERTEX_POINT ( 'NONE', #293 ) ;
#223 = DIRECTION ( 'NONE',  ( 3.491481338843133355E-15, -0.000000000000000000, 1.000000000000000000 ) ) ;
#224 = ORIENTED_EDGE ( 'NONE', *, *, #343, .T. ) ;
#225 = CIRCLE ( 'NONE', #349, 0.4540741737109291742 ) ;
#226 = APPROVAL_PERSON_ORGANIZATION ( #357, #316, #201 ) ;
#227 = FACE_OUTER_BOUND ( 'NONE', #197, .T. ) ;
#228 = ADVANCED_FACE ( 'NONE', ( #271, #239 ), #136, .T. ) ;
#229 = ORIENTED_EDGE ( 'NONE', *, *, #140, .T. ) ;
#230 = VERTEX_POINT ( 'NONE', #353 ) ;
#231 = CARTESIAN_POINT ( 'NONE',  ( 0.4171501829524911775, 0.000000000000000000, -1.456472079273622005E-15 ) ) ;
#232 = DIRECTION ( 'NONE',  ( -3.491481338843133355E-15, 0.000000000000000000, -1.000000000000000000 ) ) ;
#233 = CARTESIAN_POINT ( 'NONE',  ( 1.431507348925684360E-14, 0.000000000000000000, 4.099999999999999645 ) ) ;
#234 = FACE_OUTER_BOUND ( 'NONE', #346, .T. ) ;
#235 = ADVANCED_FACE ( 'NONE', ( #250, #374 ), #375, .T. ) ;
#236 = CIRCLE ( 'NONE', #257, 0.6949999999999998401 ) ;
#237 = FACE_BOUND ( 'NONE', #48, .T. ) ;
#238 = DIRECTION ( 'NONE',  ( 1.000000000000000000, 0.000000000000000000, 0.000000000000000000 ) ) ;
#239 = FACE_OUTER_BOUND ( 'NONE', #78, .T. ) ;
#240 = CARTESIAN_POINT ( 'NONE',  ( 0.6950000000000017275, 0.000000000000000000, 0.5395833333333339699 ) ) ;
#241 = PERSON_AND_ORGANIZATION ( #191, #280 ) ;
#242 = DIRECTION ( 'NONE',  ( 1.000000000000000000, 0.000000000000000000, -3.491481338843133750E-15 ) ) ;
#243 = PERSON_AND_ORGANIZATION ( #191, #280 ) ;
#244 = DIRECTION ( 'NONE',  ( 1.000000000000000000, 0.000000000000000000, 0.000000000000000000 ) ) ;
#245 = AXIS2_PLACEMENT_3D ( 'NONE', #7, #159, #96 ) ;
#246 = PRODUCT_DEFINITION_FORMATION_WITH_SPECIFIED_SOURCE ( 'ANY', '', #383, .NOT_KNOWN. ) ;
#247 = CC_DESIGN_PERSON_AND_ORGANIZATION_ASSIGNMENT ( #3, #278, ( #285 ) ) ;
#248 = CARTESIAN_POINT ( 'NONE',  ( 0.000000000000000000, 0.000000000000000000, 0.000000000000000000 ) ) ;
#249 = SHAPE_DEFINITION_REPRESENTATION ( #264, #256 ) ;
#250 = FACE_OUTER_BOUND ( 'NONE', #182, .T. ) ;
#251 = COORDINATED_UNIVERSAL_TIME_OFFSET ( 1, 0, .AHEAD. ) ;
#252 = AXIS2_PLACEMENT_3D ( 'NONE', #233, #354, #327 ) ;
#253 = ORIENTED_EDGE ( 'NONE', *, *, #286, .F. ) ;
#254 = DATE_TIME_ROLE ( 'classification_date' ) ;
#255 = ADVANCED_FACE ( 'NONE', ( #217, #342 ), #187, .F. ) ;
#256 = ADVANCED_BREP_SHAPE_REPRESENTATION ( '953221', ( #296, #384 ), #110 ) ;
#257 = AXIS2_PLACEMENT_3D ( 'NONE', #59, #303, #30 ) ;
#258 = ORIENTED_EDGE ( 'NONE', *, *, #266, .F. ) ;
#259 = DIRECTION ( 'NONE',  ( -3.491481338843133355E-15, 0.000000000000000000, -1.000000000000000000 ) ) ;
#260 = EDGE_LOOP ( 'NONE', ( #75 ) ) ;
#261 = VERTEX_POINT ( 'NONE', #277 ) ;
#262 = EDGE_LOOP ( 'NONE', ( #224 ) ) ;
#263 = AXIS2_PLACEMENT_3D ( 'NONE', #248, #331, #242 ) ;
#264 = PRODUCT_DEFINITION_SHAPE ( 'NONE', 'NONE',  #81 ) ;
#265 = CARTESIAN_POINT ( 'NONE',  ( 0.4929274057836307565, 0.000000000000000000, 0.3062499999999992450 ) ) ;
#266 = EDGE_CURVE ( 'NONE', #21, #21, #382, .T. ) ;
#267 = CARTESIAN_POINT ( 'NONE',  ( 1.316288464743861212E-13, 0.000000000000000000, 37.69999999999999574 ) ) ;
#268 = DIRECTION ( 'NONE',  ( 1.000000000000000000, 0.000000000000000000, -5.782411586589388010E-15 ) ) ;
#269 = DIRECTION ( 'NONE',  ( 1.000000000000000000, 0.000000000000000000, -4.130293990420975208E-15 ) ) ;
#270 = ADVANCED_FACE ( 'NONE', ( #47 ), #184, .F. ) ;
#271 = FACE_OUTER_BOUND ( 'NONE', #221, .T. ) ;
#272 = CONICAL_SURFACE ( 'NONE', #263, 0.4171501829524911775, 1.047197551196591414 ) ;
#273 = LOCAL_TIME ( 7, 49, 6.000000000000000000, #58 ) ;
#274 = DIRECTION ( 'NONE',  ( 1.000000000000000000, 0.000000000000000000, -3.510007033226453485E-15 ) ) ;
#275 = APPROVAL_STATUS ( 'not_yet_approved' ) ;
#276 = DIRECTION ( 'NONE',  ( 1.000000000000000000, 0.000000000000000000, -3.491481338843133750E-15 ) ) ;
#277 = CARTESIAN_POINT ( 'NONE',  ( 0.6950000000000006173, 0.000000000000000000, 0.1895833333333308279 ) ) ;
#278 = PERSON_AND_ORGANIZATION_ROLE ( 'classification_officer' ) ;
#279 = DIRECTION ( 'NONE',  ( 3.491481338843133355E-15, -0.000000000000000000, 1.000000000000000000 ) ) ;
#280 = ORGANIZATION ( 'UNSPECIFIED', 'UNSPECIFIED', '' ) ;
#281 = DESIGN_CONTEXT ( 'detailed design', #101, 'design' ) ;
#282 = ADVANCED_FACE ( 'NONE', ( #178, #164 ), #46, .T. ) ;
#283 = ORIENTED_EDGE ( 'NONE', *, *, #220, .T. ) ;
#284 = AXIS2_PLACEMENT_3D ( 'NONE', #172, #62, #276 ) ;
#285 = SECURITY_CLASSIFICATION ( '', '', #152 ) ;
#286 = EDGE_CURVE ( 'NONE', #230, #230, #32, .T. ) ;
#287 = DIRECTION ( 'NONE',  ( 3.491481338843133355E-15, -0.000000000000000000, 1.000000000000000000 ) ) ;
#288 = VERTEX_POINT ( 'NONE', #77 ) ;
#289 = CC_DESIGN_PERSON_AND_ORGANIZATION_ASSIGNMENT ( #241, #306, ( #246 ) ) ;
#290 = CARTESIAN_POINT ( 'NONE',  ( 1.326762908760390423E-13, 0.000000000000000000, 38.00000000000000000 ) ) ;
#291 = AXIS2_PLACEMENT_3D ( 'NONE', #60, #259, #324 ) ;
#292 = FACE_OUTER_BOUND ( 'NONE', #214, .T. ) ;
#293 = CARTESIAN_POINT ( 'NONE',  ( 0.4200000000000024269, 0.000000000000000000, 0.6999999999999977351 ) ) ;
#294 = CARTESIAN_POINT ( 'NONE',  ( 0.4200000000000136957, 0.000000000000000000, 4.099999999999997868 ) ) ;
#295 = EDGE_LOOP ( 'NONE', ( #161 ) ) ;
#296 = MANIFOLD_SOLID_BREP ( 'Corps-Déplacer/Copier1', #358 ) ;
#297 = CARTESIAN_POINT ( 'NONE',  ( 0.4929274057836322553, 0.000000000000000000, 0.6999999999999975131 ) ) ;
#298 = EDGE_LOOP ( 'NONE', ( #106 ) ) ;
#299 = ADVANCED_FACE ( 'NONE', ( #199, #227 ), #311, .F. ) ;
#300 = CARTESIAN_POINT ( 'NONE',  ( 2.291284628615796404E-15, 0.000000000000000000, 0.6562499999999971134 ) ) ;
#301 = CARTESIAN_POINT ( 'NONE',  ( 6.619266704890104357E-16, 0.000000000000000000, 0.1895833333333332704 ) ) ;
#302 = DIRECTION ( 'NONE',  ( 3.491481338843133355E-15, -0.000000000000000000, 1.000000000000000000 ) ) ;
#303 = DIRECTION ( 'NONE',  ( 3.491481338843133355E-15, -0.000000000000000000, 1.000000000000000000 ) ) ;
#304 = FACE_OUTER_BOUND ( 'NONE', #262, .T. ) ;
#305 = CIRCLE ( 'NONE', #284, 0.4171501829524911775 ) ;
#306 = PERSON_AND_ORGANIZATION_ROLE ( 'creator' ) ;
#307 = DIRECTION ( 'NONE',  ( 3.491481338843133355E-15, -0.000000000000000000, 1.000000000000000000 ) ) ;
#308 = ADVANCED_FACE ( 'NONE', ( #119, #389 ), #80, .T. ) ;
#309 = CARTESIAN_POINT ( 'NONE',  ( 2.444036937190190588E-15, 0.000000000000000000, 0.6999999999999992895 ) ) ;
#310 = APPROVAL_DATE_TIME ( #361, #185 ) ;
#311 = TOROIDAL_SURFACE ( 'NONE', #252, 1.419999999999999485, 1.000000000000000000 ) ;
#312 = CONICAL_SURFACE ( 'NONE', #291, 0.6949999999999998401, 1.047197551196622056 ) ;
#313 = DIRECTION ( 'NONE',  ( 1.000000000000000000, 0.000000000000000000, -3.519227082168491783E-15 ) ) ;
#314 = AXIS2_PLACEMENT_3D ( 'NONE', #301, #125, #274 ) ;
#315 = CONICAL_SURFACE ( 'NONE', #100, 0.4540741737109291742, 0.2617993877991425800 ) ;
#316 = APPROVAL ( #275, 'UNSPECIFIED' ) ;
#317 = EDGE_LOOP ( 'NONE', ( #132 ) ) ;
#318 = DIRECTION ( 'NONE',  ( -1.000000000000000000, 0.000000000000000000, 3.491481338843133355E-15 ) ) ;
#319 = EDGE_LOOP ( 'NONE', ( #258 ) ) ;
#320 = EDGE_LOOP ( 'NONE', ( #108 ) ) ;
#321 = AXIS2_PLACEMENT_3D ( 'NONE', #202, #92, #4 ) ;
#322 = VERTEX_POINT ( 'NONE', #50 ) ;
#323 = ORIENTED_EDGE ( 'NONE', *, *, #13, .F. ) ;
#324 = DIRECTION ( 'NONE',  ( -1.000000000000000000, 0.000000000000000000, 3.432006876932533006E-15 ) ) ;
#325 = DIRECTION ( 'NONE',  ( -1.000000000000000000, 0.000000000000000000, 4.625929269271496366E-15 ) ) ;
#326 = CIRCLE ( 'NONE', #9, 0.6949999999999999512 ) ;
#327 = DIRECTION ( 'NONE',  ( 1.000000000000000000, 0.000000000000000000, -3.491481338843133355E-15 ) ) ;
#328 = CARTESIAN_POINT ( 'NONE',  ( 5.600917981060968883E-16, 0.000000000000000000, 0.1604166666666698160 ) ) ;
#329 = FACE_OUTER_BOUND ( 'NONE', #26, .T. ) ;
#330 = APPROVAL_ROLE ( '' ) ;
#331 = DIRECTION ( 'NONE',  ( 3.491481338843133355E-15, -0.000000000000000000, 1.000000000000000000 ) ) ;
#332 = DIRECTION ( 'NONE',  ( 0.000000000000000000, 0.000000000000000000, 1.000000000000000000 ) ) ;
#333 = PLANE ( 'NONE',  #135 ) ;
#334 = AXIS2_PLACEMENT_3D ( 'NONE', #218, #67, #373 ) ;
#335 = LOCAL_TIME ( 7, 49, 6.000000000000000000, #369 ) ;
#336 = DIRECTION ( 'NONE',  ( 3.491481338843133355E-15, -0.000000000000000000, 1.000000000000000000 ) ) ;
#337 = VERTEX_POINT ( 'NONE', #98 ) ;
#338 = CARTESIAN_POINT ( 'NONE',  ( 1.326762908760390423E-13, 0.000000000000000000, 38.00000000000000000 ) ) ;
#339 = ORIENTED_EDGE ( 'NONE', *, *, #347, .F. ) ;
#340 = AXIS2_PLACEMENT_3D ( 'NONE', #138, #37, #244 ) ;
#341 = CC_DESIGN_APPROVAL ( #316, ( #246 ) ) ;
#342 = FACE_OUTER_BOUND ( 'NONE', #317, .T. ) ;
#343 = EDGE_CURVE ( 'NONE', #222, #222, #181, .T. ) ;
#344 = ORIENTED_EDGE ( 'NONE', *, *, #71, .F. ) ;
#345 = CIRCLE ( 'NONE', #314, 0.6949999999999999512 ) ;
#346 = EDGE_LOOP ( 'NONE', ( #170 ) ) ;
#347 = EDGE_CURVE ( 'NONE', #288, #288, #42, .T. ) ;
#348 = VERTEX_POINT ( 'NONE', #193 ) ;
#349 = AXIS2_PLACEMENT_3D ( 'NONE', #66, #307, #123 ) ;
#350 = CARTESIAN_POINT ( 'NONE',  ( 2.884755233805617762E-14, 0.000000000000000000, 8.262267369761891800 ) ) ;
#351 = EDGE_CURVE ( 'NONE', #95, #95, #56, .T. ) ;
#352 = ORIENTED_EDGE ( 'NONE', *, *, #206, .T. ) ;
#353 = CARTESIAN_POINT ( 'NONE',  ( 0.4929274057836320333, 0.000000000000000000, 0.6562499999999953371 ) ) ;
#354 = DIRECTION ( 'NONE',  ( 3.491481338843133355E-15, -0.000000000000000000, 1.000000000000000000 ) ) ;
#355 = DIRECTION ( 'NONE',  ( -1.000000000000000000, 0.000000000000000000, 3.510007033226453485E-15 ) ) ;
#356 = DIRECTION ( 'NONE',  ( 1.000000000000000000, 0.000000000000000000, -3.469446951953614189E-15 ) ) ;
#357 = PERSON_AND_ORGANIZATION ( #191, #280 ) ;
#358 = CLOSED_SHELL ( 'NONE', ( #270, #137, #188, #2, #282, #165, #6, #387, #228, #255, #45, #299, #365, #235, #308, #99 ) ) ;
#359 = DIRECTION ( 'NONE',  ( 3.491481338843133355E-15, -0.000000000000000000, 1.000000000000000000 ) ) ;
#360 = AXIS2_PLACEMENT_3D ( 'NONE', #290, #163, #15 ) ;
#361 = DATE_AND_TIME ( #120, #370 ) ;
#362 = CARTESIAN_POINT ( 'NONE',  ( 1.374770777169477842E-15, 0.000000000000000000, 0.3937499999999982681 ) ) ;
#363 = PERSON_AND_ORGANIZATION_ROLE ( 'design_supplier' ) ;
#364 = DIRECTION ( 'NONE',  ( 3.491481338843133355E-15, -0.000000000000000000, 1.000000000000000000 ) ) ;
#365 = ADVANCED_FACE ( 'NONE', ( #203, #237 ), #315, .T. ) ;
#366 = DIRECTION ( 'NONE',  ( -1.000000000000000000, 0.000000000000000000, 3.491481338843133355E-15 ) ) ;
#367 = AXIS2_PLACEMENT_3D ( 'NONE', #189, #232, #355 ) ;
#368 = APPROVAL_PERSON_ORGANIZATION ( #215, #38, #183 ) ;
#369 = COORDINATED_UNIVERSAL_TIME_OFFSET ( 1, 0, .AHEAD. ) ;
#370 = LOCAL_TIME ( 7, 49, 6.000000000000000000, #65 ) ;
#371 = DATE_AND_TIME ( #179, #395 ) ;
#372 = EDGE_LOOP ( 'NONE', ( #166 ) ) ;
#373 = DIRECTION ( 'NONE',  ( 1.000000000000000000, 0.000000000000000000, -4.625929269271490844E-15 ) ) ;
#374 = FACE_OUTER_BOUND ( 'NONE', #320, .T. ) ;
#375 = CYLINDRICAL_SURFACE ( 'NONE', #334, 1.499999999999998224 ) ;
#376 = AXIS2_PLACEMENT_3D ( 'NONE', #151, #63, #176 ) ;
#377 = EDGE_LOOP ( 'NONE', ( #253 ) ) ;
#378 = EDGE_LOOP ( 'NONE', ( #139 ) ) ;
#379 = VERTEX_POINT ( 'NONE', #386 ) ;
#380 = EDGE_LOOP ( 'NONE', ( #211 ) ) ;
#381 = VERTEX_POINT ( 'NONE', #297 ) ;
#382 = CIRCLE ( 'NONE', #87, 0.4929274057836296463 ) ;
#383 = PRODUCT ( '953221', '953221', '', ( #157 ) ) ;
#384 = AXIS2_PLACEMENT_3D ( 'NONE', #392, #332, #238 ) ;
#385 = ORIENTED_EDGE ( 'NONE', *, *, #140, .F. ) ;
#386 = CARTESIAN_POINT ( 'NONE',  ( 0.4540741737109443843, 0.000000000000000000, 4.358819045102509726 ) ) ;
#387 = ADVANCED_FACE ( 'NONE', ( #89, #329 ), #312, .T. ) ;
#388 = EDGE_LOOP ( 'NONE', ( #229 ) ) ;
#389 = FACE_OUTER_BOUND ( 'NONE', #380, .T. ) ;
#390 = DATE_AND_TIME ( #39, #335 ) ;
#391 = DIRECTION ( 'NONE',  ( 3.491481338843133355E-15, -0.000000000000000000, 1.000000000000000000 ) ) ;
#392 = CARTESIAN_POINT ( 'NONE',  ( 0.000000000000000000, 0.000000000000000000, 0.000000000000000000 ) ) ;
#393 = CIRCLE ( 'NONE', #376, 0.6949999999999998401 ) ;
#394 = FACE_OUTER_BOUND ( 'NONE', #216, .T. ) ;
#395 = LOCAL_TIME ( 7, 49, 6.000000000000000000, #251 ) ;
ENDSEC;
END-ISO-10303-21;
