ISO-10303-21;
HEADER;
FILE_DESCRIPTION (( 'STEP AP203' ),
    '1' );
FILE_NAME ('953220.step',
    '2023-09-27T05:49:05',
    ( '' ),
    ( '' ),
    'SwSTEP 2.0',
    'SolidWorks 2022',
    '' );
FILE_SCHEMA (( 'CONFIG_CONTROL_DESIGN' ));
ENDSEC;

DATA;
#1 = CYLINDRICAL_SURFACE ( 'NONE', #5, 0.3929274057836296130 ) ;
#2 = ADVANCED_FACE ( 'NONE', ( #325 ), #236, .F. ) ;
#3 = DIRECTION ( 'NONE',  ( 3.491481338843133355E-15, -0.000000000000000000, 1.000000000000000000 ) ) ;
#4 = AXIS2_PLACEMENT_3D ( 'NONE', #364, #395, #120 ) ;
#5 = AXIS2_PLACEMENT_3D ( 'NONE', #59, #249, #29 ) ;
#6 = ADVANCED_FACE ( 'NONE', ( #185 ), #329, .F. ) ;
#7 = ADVANCED_FACE ( 'NONE', ( #240, #330 ), #296, .T. ) ;
#8 = DIRECTION ( 'NONE',  ( 1.000000000000000000, 0.000000000000000000, -3.507712910982514647E-15 ) ) ;
#9 = DESIGN_CONTEXT ( 'detailed design', #47, 'design' ) ;
#10 = EDGE_LOOP ( 'NONE', ( #362 ) ) ;
#11 =( LENGTH_UNIT ( ) NAMED_UNIT ( * ) SI_UNIT ( .MILLI., .METRE. ) );
#12 = EDGE_LOOP ( 'NONE', ( #326 ) ) ;
#13 = VERTEX_POINT ( 'NONE', #373 ) ;
#14 = ORIENTED_EDGE ( 'NONE', *, *, #194, .F. ) ;
#15 = DIRECTION ( 'NONE',  ( 1.000000000000000000, 0.000000000000000000, -4.065758146820647150E-15 ) ) ;
#16 = COORDINATED_UNIVERSAL_TIME_OFFSET ( 1, 0, .AHEAD. ) ;
#17 = ORIENTED_EDGE ( 'NONE', *, *, #123, .T. ) ;
#18 = DIRECTION ( 'NONE',  ( -1.000000000000000000, 0.000000000000000000, 3.491481338843133355E-15 ) ) ;
#19 = PERSON_AND_ORGANIZATION_ROLE ( 'classification_officer' ) ;
#20 = FACE_OUTER_BOUND ( 'NONE', #347, .T. ) ;
#21 = PERSON_AND_ORGANIZATION ( #216, #270 ) ;
#22 = DIRECTION ( 'NONE',  ( -1.000000000000000000, 0.000000000000000000, 3.462158197852872240E-15 ) ) ;
#23 = PERSON_AND_ORGANIZATION_ROLE ( 'design_supplier' ) ;
#24 = CIRCLE ( 'NONE', #206, 0.5949999999999999734 ) ;
#25 = CC_DESIGN_APPROVAL ( #374, ( #354 ) ) ;
#26 = AXIS2_PLACEMENT_3D ( 'NONE', #390, #191, #31 ) ;
#27 = FACE_OUTER_BOUND ( 'NONE', #349, .T. ) ;
#28 = DIRECTION ( 'NONE',  ( 1.000000000000000000, 0.000000000000000000, 0.000000000000000000 ) ) ;
#29 = DIRECTION ( 'NONE',  ( 1.000000000000000000, 0.000000000000000000, 0.000000000000000000 ) ) ;
#30 = DIRECTION ( 'NONE',  ( 1.000000000000000000, 0.000000000000000000, -3.469446951953614189E-15 ) ) ;
#31 = DIRECTION ( 'NONE',  ( 1.000000000000000000, 0.000000000000000000, -5.782411586589388010E-15 ) ) ;
#32 = EDGE_LOOP ( 'NONE', ( #136 ) ) ;
#33 = EDGE_CURVE ( 'NONE', #310, #310, #383, .T. ) ;
#34 = DIRECTION ( 'NONE',  ( 3.491481338843133355E-15, -0.000000000000000000, 1.000000000000000000 ) ) ;
#35 = DIRECTION ( 'NONE',  ( 1.000000000000000000, 0.000000000000000000, -4.625929269271496366E-15 ) ) ;
#36 = VERTEX_POINT ( 'NONE', #381 ) ;
#37 = LOCAL_TIME ( 7, 49, 5.000000000000000000, #260 ) ;
#38 = CARTESIAN_POINT ( 'NONE',  ( 0.3200000000000024492, 0.000000000000000000, 0.6999999999999981792 ) ) ;
#39 = ORIENTED_EDGE ( 'NONE', *, *, #117, .F. ) ;
#40 = CALENDAR_DATE ( 2023, 27, 9 ) ;
#41 =( NAMED_UNIT ( * ) SI_UNIT ( $, .STERADIAN. ) SOLID_ANGLE_UNIT ( ) );
#42 = CARTESIAN_POINT ( 'NONE',  ( 1.200000000000126299, 0.000000000000000000, 37.99999999999999289 ) ) ;
#43 = ORIENTED_EDGE ( 'NONE', *, *, #33, .T. ) ;
#44 = AXIS2_PLACEMENT_3D ( 'NONE', #250, #394, #28 ) ;
#45 = APPROVAL_DATE_TIME ( #175, #247 ) ;
#46 = AXIS2_PLACEMENT_3D ( 'NONE', #91, #121, #271 ) ;
#47 = APPLICATION_CONTEXT ( 'configuration controlled 3d designs of mechanical parts and assemblies' ) ;
#48 = ORIENTED_EDGE ( 'NONE', *, *, #157, .F. ) ;
#49 = DIRECTION ( 'NONE',  ( 3.491481338843133355E-15, -0.000000000000000000, 1.000000000000000000 ) ) ;
#50 = DIRECTION ( 'NONE',  ( -3.491481338843133355E-15, 0.000000000000000000, -1.000000000000000000 ) ) ;
#51 = CC_DESIGN_PERSON_AND_ORGANIZATION_ASSIGNMENT ( #227, #67, ( #263 ) ) ;
#52 = ORIENTED_EDGE ( 'NONE', *, *, #140, .T. ) ;
#53 = FACE_BOUND ( 'NONE', #297, .T. ) ;
#54 = CARTESIAN_POINT ( 'NONE',  ( 2.444036937190190588E-15, 0.000000000000000000, 0.6999999999999992895 ) ) ;
#55 = FACE_OUTER_BOUND ( 'NONE', #12, .T. ) ;
#56 = AXIS2_PLACEMENT_3D ( 'NONE', #76, #380, #360 ) ;
#57 = CARTESIAN_POINT ( 'NONE',  ( 0.3200000000000124412, 0.000000000000000000, 3.700000000000000622 ) ) ;
#58 = AXIS2_PLACEMENT_3D ( 'NONE', #80, #264, #15 ) ;
#59 = CARTESIAN_POINT ( 'NONE',  ( 1.326762908760390423E-13, 0.000000000000000000, 38.00000000000000000 ) ) ;
#60 = CARTESIAN_POINT ( 'NONE',  ( 1.291848095371959341E-14, 0.000000000000000000, 3.700000000000000178 ) ) ;
#61 = DIRECTION ( 'NONE',  ( 3.491481338843133355E-15, -0.000000000000000000, 1.000000000000000000 ) ) ;
#62 = EDGE_LOOP ( 'NONE', ( #43 ) ) ;
#63 = ORIENTED_EDGE ( 'NONE', *, *, #353, .F. ) ;
#64 = CIRCLE ( 'NONE', #224, 1.499999999999996447 ) ;
#65 = EDGE_CURVE ( 'NONE', #305, #305, #335, .T. ) ;
#66 = VERTEX_POINT ( 'NONE', #163 ) ;
#67 = PERSON_AND_ORGANIZATION_ROLE ( 'design_owner' ) ;
#68 = FACE_BOUND ( 'NONE', #172, .T. ) ;
#69 = ORIENTED_EDGE ( 'NONE', *, *, #149, .T. ) ;
#70 = PERSON_AND_ORGANIZATION ( #216, #270 ) ;
#71 =( NAMED_UNIT ( * ) PLANE_ANGLE_UNIT ( ) SI_UNIT ( $, .RADIAN. ) );
#72 = CARTESIAN_POINT ( 'NONE',  ( 5.600917981060968883E-16, 0.000000000000000000, 0.1604166666666698160 ) ) ;
#73 = EDGE_LOOP ( 'NONE', ( #358 ) ) ;
#74 = CARTESIAN_POINT ( 'NONE',  ( 0.5950000000000015277, 0.000000000000000000, 0.5104166666666638541 ) ) ;
#75 = AXIS2_PLACEMENT_3D ( 'NONE', #60, #187, #307 ) ;
#76 = CARTESIAN_POINT ( 'NONE',  ( 0.000000000000000000, 0.000000000000000000, 0.000000000000000000 ) ) ;
#77 = APPROVAL_PERSON_ORGANIZATION ( #70, #239, #169 ) ;
#78 = AXIS2_PLACEMENT_3D ( 'NONE', #388, #180, #137 ) ;
#79 = ORIENTED_EDGE ( 'NONE', *, *, #157, .T. ) ;
#80 = CARTESIAN_POINT ( 'NONE',  ( 1.291848095371959973E-14, 0.000000000000000000, 3.700000000000001954 ) ) ;
#81 = ORIENTED_EDGE ( 'NONE', *, *, #324, .T. ) ;
#82 = APPROVAL_DATE_TIME ( #211, #374 ) ;
#83 = DIRECTION ( 'NONE',  ( 3.491481338843133355E-15, -0.000000000000000000, 1.000000000000000000 ) ) ;
#84 = DATE_TIME_ROLE ( 'creation_date' ) ;
#85 = DIRECTION ( 'NONE',  ( -1.000000000000000000, 0.000000000000000000, 3.507712910982514647E-15 ) ) ;
#86 = ORIENTED_EDGE ( 'NONE', *, *, #258, .F. ) ;
#87 = DIRECTION ( 'NONE',  ( -1.000000000000000000, 0.000000000000000000, 3.491481338843133355E-15 ) ) ;
#88 = FACE_BOUND ( 'NONE', #288, .T. ) ;
#89 = CC_DESIGN_SECURITY_CLASSIFICATION ( #182, ( #354 ) ) ;
#90 = FACE_OUTER_BOUND ( 'NONE', #105, .T. ) ;
#91 = CARTESIAN_POINT ( 'NONE',  ( 1.374770777169477842E-15, 0.000000000000000000, 0.3937499999999982681 ) ) ;
#92 = DIRECTION ( 'NONE',  ( 1.000000000000000000, 0.000000000000000000, -3.388131789017201356E-15 ) ) ;
#93 = AXIS2_PLACEMENT_3D ( 'NONE', #207, #83, #382 ) ;
#94 = CIRCLE ( 'NONE', #189, 0.3540741737109293075 ) ;
#95 = ADVANCED_FACE ( 'NONE', ( #20, #265 ), #352, .T. ) ;
#96 = FACE_OUTER_BOUND ( 'NONE', #32, .T. ) ;
#97 = MECHANICAL_CONTEXT ( 'NONE', #122, 'mechanical' ) ;
#98 = MANIFOLD_SOLID_BREP ( 'Corps-Déplacer/Copier1', #164 ) ;
#99 = CARTESIAN_POINT ( 'NONE',  ( 1.500000000000127898, 0.000000000000000000, 37.69999999999998863 ) ) ;
#100 = LOCAL_TIME ( 7, 49, 5.000000000000000000, #199 ) ;
#101 = CARTESIAN_POINT ( 'NONE',  ( 0.000000000000000000, 0.000000000000000000, 0.000000000000000000 ) ) ;
#102 = ADVANCED_FACE ( 'NONE', ( #213, #53 ), #118, .T. ) ;
#103 = CARTESIAN_POINT ( 'NONE',  ( 0.3929274057836320555, 0.000000000000000000, 0.6999999999999978462 ) ) ;
#104 = EDGE_LOOP ( 'NONE', ( #241 ) ) ;
#105 = EDGE_LOOP ( 'NONE', ( #52 ) ) ;
#106 = EDGE_LOOP ( 'NONE', ( #14 ) ) ;
#107 = AXIS2_PLACEMENT_3D ( 'NONE', #341, #34, #195 ) ;
#108 = CC_DESIGN_PERSON_AND_ORGANIZATION_ASSIGNMENT ( #290, #196, ( #379 ) ) ;
#109 = DIRECTION ( 'NONE',  ( 1.000000000000000000, 0.000000000000000000, -3.491481338843133355E-15 ) ) ;
#110 = FACE_OUTER_BOUND ( 'NONE', #139, .T. ) ;
#111 = EDGE_LOOP ( 'NONE', ( #17 ) ) ;
#112 = CIRCLE ( 'NONE', #339, 0.3929274057836296685 ) ;
#113 = AXIS2_PLACEMENT_3D ( 'NONE', #235, #356, #298 ) ;
#114 = CARTESIAN_POINT ( 'NONE',  ( 1.883945139084117760E-15, 0.000000000000000000, 0.5395833333333364124 ) ) ;
#115 = CYLINDRICAL_SURFACE ( 'NONE', #4, 1.499999999999998224 ) ;
#116 = DIRECTION ( 'NONE',  ( 3.491481338843133355E-15, -0.000000000000000000, 1.000000000000000000 ) ) ;
#117 = EDGE_CURVE ( 'NONE', #230, #230, #251, .T. ) ;
#118 = CONICAL_SURFACE ( 'NONE', #113, 0.3540741737109293075, 0.2617993877991428575 ) ;
#119 = FACE_OUTER_BOUND ( 'NONE', #322, .T. ) ;
#120 = DIRECTION ( 'NONE',  ( 1.000000000000000000, 0.000000000000000000, -4.625929269271490844E-15 ) ) ;
#121 = DIRECTION ( 'NONE',  ( 3.491481338843133355E-15, -0.000000000000000000, 1.000000000000000000 ) ) ;
#122 = APPLICATION_CONTEXT ( 'configuration controlled 3d designs of mechanical parts and assemblies' ) ;
#123 = EDGE_CURVE ( 'NONE', #203, #203, #340, .T. ) ;
#124 = AXIS2_PLACEMENT_3D ( 'NONE', #276, #392, #92 ) ;
#125 = EDGE_LOOP ( 'NONE', ( #355 ) ) ;
#126 = LOCAL_TIME ( 7, 49, 5.000000000000000000, #378 ) ;
#127 = DIRECTION ( 'NONE',  ( 1.000000000000000000, 0.000000000000000000, -3.449117306806456780E-15 ) ) ;
#128 = AXIS2_PLACEMENT_3D ( 'NONE', #114, #367, #22 ) ;
#129 = ORIENTED_EDGE ( 'NONE', *, *, #117, .T. ) ;
#130 = VERTEX_POINT ( 'NONE', #74 ) ;
#131 = EDGE_LOOP ( 'NONE', ( #385 ) ) ;
#132 = DATE_TIME_ROLE ( 'classification_date' ) ;
#133 = DIRECTION ( 'NONE',  ( 1.000000000000000000, 0.000000000000000000, -3.587081999078715714E-15 ) ) ;
#134 = ORIENTED_EDGE ( 'NONE', *, *, #258, .T. ) ;
#135 = APPROVAL_STATUS ( 'not_yet_approved' ) ;
#136 = ORIENTED_EDGE ( 'NONE', *, *, #266, .F. ) ;
#137 = DIRECTION ( 'NONE',  ( -1.000000000000000000, 0.000000000000000000, 4.625929269271496366E-15 ) ) ;
#138 = VERTEX_POINT ( 'NONE', #42 ) ;
#139 = EDGE_LOOP ( 'NONE', ( #69 ) ) ;
#140 = EDGE_CURVE ( 'NONE', #130, #130, #225, .T. ) ;
#141 = ORIENTED_EDGE ( 'NONE', *, *, #140, .F. ) ;
#142 = APPROVAL_STATUS ( 'not_yet_approved' ) ;
#143 = CIRCLE ( 'NONE', #204, 1.500000000000000000 ) ;
#144 = DIRECTION ( 'NONE',  ( 1.000000000000000000, 0.000000000000000000, -3.462158197852872240E-15 ) ) ;
#145 = EDGE_LOOP ( 'NONE', ( #134 ) ) ;
#146 = PERSON_AND_ORGANIZATION ( #216, #270 ) ;
#147 = ORIENTED_EDGE ( 'NONE', *, *, #33, .F. ) ;
#148 = COORDINATED_UNIVERSAL_TIME_OFFSET ( 1, 0, .AHEAD. ) ;
#149 = EDGE_CURVE ( 'NONE', #168, #168, #24, .T. ) ;
#150 = FACE_OUTER_BOUND ( 'NONE', #259, .T. ) ;
#151 = AXIS2_PLACEMENT_3D ( 'NONE', #306, #61, #277 ) ;
#152 = APPROVAL_PERSON_ORGANIZATION ( #171, #247, #257 ) ;
#153 = CIRCLE ( 'NONE', #26, 1.199999999999993516 ) ;
#154 = DIRECTION ( 'NONE',  ( -3.491481338843133355E-15, 0.000000000000000000, -1.000000000000000000 ) ) ;
#155 = ADVANCED_FACE ( 'NONE', ( #88, #248 ), #301, .T. ) ;
#156 = CYLINDRICAL_SURFACE ( 'NONE', #272, 0.5949999999999998623 ) ;
#157 = EDGE_CURVE ( 'NONE', #36, #36, #143, .T. ) ;
#158 = FACE_OUTER_BOUND ( 'NONE', #262, .T. ) ;
#159 = PLANE ( 'NONE',  #166 ) ;
#160 = DIRECTION ( 'NONE',  ( 3.491481338843133355E-15, -0.000000000000000000, 1.000000000000000000 ) ) ;
#161 = DIRECTION ( 'NONE',  ( 1.000000000000000000, 0.000000000000000000, 0.000000000000000000 ) ) ;
#162 = FACE_OUTER_BOUND ( 'NONE', #316, .T. ) ;
#163 = CARTESIAN_POINT ( 'NONE',  ( 0.5950000000000005285, 0.000000000000000000, 0.1604166666666677343 ) ) ;
#164 = CLOSED_SHELL ( 'NONE', ( #2, #331, #387, #365, #391, #212, #190, #155, #177, #222, #95, #279, #102, #294, #7, #6 ) ) ;
#165 = CONICAL_SURFACE ( 'NONE', #107, 0.3171501829524913108, 1.047197551196591192 ) ;
#166 = AXIS2_PLACEMENT_3D ( 'NONE', #220, #154, #87 ) ;
#167 = DATE_AND_TIME ( #344, #100 ) ;
#168 = VERTEX_POINT ( 'NONE', #200 ) ;
#169 = APPROVAL_ROLE ( '' ) ;
#170 = EDGE_LOOP ( 'NONE', ( #39 ) ) ;
#171 = PERSON_AND_ORGANIZATION ( #216, #270 ) ;
#172 = EDGE_LOOP ( 'NONE', ( #286 ) ) ;
#173 = AXIS2_PLACEMENT_3D ( 'NONE', #210, #49, #109 ) ;
#174 = DIRECTION ( 'NONE',  ( -3.491481338843133355E-15, 0.000000000000000000, -1.000000000000000000 ) ) ;
#175 = DATE_AND_TIME ( #320, #126 ) ;
#176 = ORIENTED_EDGE ( 'NONE', *, *, #348, .T. ) ;
#177 = ADVANCED_FACE ( 'NONE', ( #192, #368 ), #1, .T. ) ;
#178 = CC_DESIGN_DATE_AND_TIME_ASSIGNMENT ( #167, #132, ( #182 ) ) ;
#179 = EDGE_LOOP ( 'NONE', ( #86 ) ) ;
#180 = DIRECTION ( 'NONE',  ( -3.491481338843133355E-15, 0.000000000000000000, -1.000000000000000000 ) ) ;
#181 = PERSON_AND_ORGANIZATION ( #216, #270 ) ;
#182 = SECURITY_CLASSIFICATION ( '', '', #184 ) ;
#183 = ORIENTED_EDGE ( 'NONE', *, *, #324, .F. ) ;
#184 = SECURITY_CLASSIFICATION_LEVEL ( 'unclassified' ) ;
#185 = FACE_OUTER_BOUND ( 'NONE', #145, .T. ) ;
#186 = FACE_OUTER_BOUND ( 'NONE', #170, .T. ) ;
#187 = DIRECTION ( 'NONE',  ( 3.491481338843133355E-15, -0.000000000000000000, 1.000000000000000000 ) ) ;
#188 = CIRCLE ( 'NONE', #280, 0.5949999999999999734 ) ;
#189 = AXIS2_PLACEMENT_3D ( 'NONE', #215, #366, #245 ) ;
#190 = ADVANCED_FACE ( 'NONE', ( #186, #90 ), #156, .T. ) ;
#191 = DIRECTION ( 'NONE',  ( 3.491481338843133355E-15, -0.000000000000000000, 1.000000000000000000 ) ) ;
#192 = FACE_OUTER_BOUND ( 'NONE', #231, .T. ) ;
#193 = DIRECTION ( 'NONE',  ( 3.491481338843133355E-15, -0.000000000000000000, 1.000000000000000000 ) ) ;
#194 = EDGE_CURVE ( 'NONE', #255, #255, #234, .T. ) ;
#195 = DIRECTION ( 'NONE',  ( 1.000000000000000000, 0.000000000000000000, -3.491481338843133355E-15 ) ) ;
#196 = PERSON_AND_ORGANIZATION_ROLE ( 'creator' ) ;
#197 = APPLICATION_PROTOCOL_DEFINITION ( 'international standard', 'config_control_design', 1994, #47 ) ;
#198 = PRODUCT_RELATED_PRODUCT_CATEGORY ( 'detail', '', ( #263 ) ) ;
#199 = COORDINATED_UNIVERSAL_TIME_OFFSET ( 1, 0, .AHEAD. ) ;
#200 = CARTESIAN_POINT ( 'NONE',  ( 0.5950000000000006395, 0.000000000000000000, 0.1895833333333311888 ) ) ;
#201 = DATE_AND_TIME ( #40, #37 ) ;
#202 = CARTESIAN_POINT ( 'NONE',  ( 0.3929274057836310008, 0.000000000000000000, 0.3937499999999969358 ) ) ;
#203 = VERTEX_POINT ( 'NONE', #103 ) ;
#204 = AXIS2_PLACEMENT_3D ( 'NONE', #217, #221, #30 ) ;
#205 = APPROVAL_PERSON_ORGANIZATION ( #146, #374, #359 ) ;
#206 = AXIS2_PLACEMENT_3D ( 'NONE', #308, #274, #363 ) ;
#207 = CARTESIAN_POINT ( 'NONE',  ( 1.326762908760390423E-13, 0.000000000000000000, 38.00000000000000000 ) ) ;
#208 = EDGE_LOOP ( 'NONE', ( #63 ) ) ;
#209 = ORIENTED_EDGE ( 'NONE', *, *, #149, .F. ) ;
#210 = CARTESIAN_POINT ( 'NONE',  ( -1.337430732131708873E-33, 0.000000000000000000, -3.830553860485053561E-19 ) ) ;
#211 = DATE_AND_TIME ( #332, #376 ) ;
#212 = ADVANCED_FACE ( 'NONE', ( #150, #393 ), #304, .T. ) ;
#213 = FACE_OUTER_BOUND ( 'NONE', #291, .T. ) ;
#214 = ORIENTED_EDGE ( 'NONE', *, *, #238, .T. ) ;
#215 = CARTESIAN_POINT ( 'NONE',  ( 1.382214281983222082E-14, 0.000000000000000000, 3.958819045102514256 ) ) ;
#216 = PERSON ( 'UNSPECIFIED', 'UNSPECIFIED', 'UNSPECIFIED', ('UNSPECIFIED'), ('UNSPECIFIED'), ('UNSPECIFIED') ) ;
#217 = CARTESIAN_POINT ( 'NONE',  ( 2.875399837754307075E-14, 0.000000000000000000, 8.235472450518786403 ) ) ;
#218 = AXIS2_PLACEMENT_3D ( 'NONE', #295, #269, #144 ) ;
#219 = LOCAL_TIME ( 7, 49, 5.000000000000000000, #148 ) ;
#220 = CARTESIAN_POINT ( 'NONE',  ( 2.444036937190193349E-15, 0.3929274057836296130, 0.6999999999999999556 ) ) ;
#221 = DIRECTION ( 'NONE',  ( 3.491481338843133355E-15, -0.000000000000000000, 1.000000000000000000 ) ) ;
#222 = ADVANCED_FACE ( 'NONE', ( #337, #300 ), #159, .F. ) ;
#223 = CARTESIAN_POINT ( 'NONE',  ( 1.326762908760390423E-13, 0.000000000000000000, 38.00000000000000000 ) ) ;
#224 = AXIS2_PLACEMENT_3D ( 'NONE', #312, #342, #35 ) ;
#225 = CIRCLE ( 'NONE', #151, 0.5949999999999998623 ) ;
#226 = CARTESIAN_POINT ( 'NONE',  ( 0.3540741737109431297, 0.000000000000000000, 3.958819045102513368 ) ) ;
#227 = PERSON_AND_ORGANIZATION ( #216, #270 ) ;
#228 = CC_DESIGN_PERSON_AND_ORGANIZATION_ASSIGNMENT ( #181, #327, ( #354 ) ) ;
#229 = VERTEX_POINT ( 'NONE', #346 ) ;
#230 = VERTEX_POINT ( 'NONE', #256 ) ;
#231 = EDGE_LOOP ( 'NONE', ( #323 ) ) ;
#232 = EDGE_LOOP ( 'NONE', ( #176 ) ) ;
#233 = CC_DESIGN_APPROVAL ( #239, ( #182 ) ) ;
#234 = CIRCLE ( 'NONE', #124, 0.3200000000000000067 ) ;
#235 = CARTESIAN_POINT ( 'NONE',  ( 1.382214281983222082E-14, 0.000000000000000000, 3.958819045102514256 ) ) ;
#236 = PLANE ( 'NONE',  #173 ) ;
#237 = DATE_AND_TIME ( #299, #219 ) ;
#238 = EDGE_CURVE ( 'NONE', #283, #283, #94, .T. ) ;
#239 = APPROVAL ( #142, 'UNSPECIFIED' ) ;
#240 = FACE_BOUND ( 'NONE', #179, .T. ) ;
#241 = ORIENTED_EDGE ( 'NONE', *, *, #65, .F. ) ;
#242 = PERSON_AND_ORGANIZATION ( #216, #270 ) ;
#243 = DIRECTION ( 'NONE',  ( 1.000000000000000000, 0.000000000000000000, -3.449117306806457175E-15 ) ) ;
#244 = CC_DESIGN_PERSON_AND_ORGANIZATION_ASSIGNMENT ( #242, #23, ( #354 ) ) ;
#245 = DIRECTION ( 'NONE',  ( 1.000000000000000000, 0.000000000000000000, -2.449661122972862797E-15 ) ) ;
#246 = DIRECTION ( 'NONE',  ( 1.000000000000000000, 0.000000000000000000, 0.000000000000000000 ) ) ;
#247 = APPROVAL ( #135, 'UNSPECIFIED' ) ;
#248 = FACE_OUTER_BOUND ( 'NONE', #318, .T. ) ;
#249 = DIRECTION ( 'NONE',  ( 3.491481338843133355E-15, -0.000000000000000000, 1.000000000000000000 ) ) ;
#250 = CARTESIAN_POINT ( 'NONE',  ( 1.326762908760390423E-13, 0.000000000000000000, 38.00000000000000000 ) ) ;
#251 = CIRCLE ( 'NONE', #218, 0.5949999999999998623 ) ;
#252 = CIRCLE ( 'NONE', #384, 0.3929274057836296130 ) ;
#253 = DIRECTION ( 'NONE',  ( 3.491481338843133355E-15, -0.000000000000000000, 1.000000000000000000 ) ) ;
#254 = DIRECTION ( 'NONE',  ( 0.000000000000000000, 0.000000000000000000, 1.000000000000000000 ) ) ;
#255 = VERTEX_POINT ( 'NONE', #38 ) ;
#256 = CARTESIAN_POINT ( 'NONE',  ( 0.5950000000000016387, 0.000000000000000000, 0.5395833333333343029 ) ) ;
#257 = APPROVAL_ROLE ( '' ) ;
#258 = EDGE_CURVE ( 'NONE', #138, #138, #153, .T. ) ;
#259 = EDGE_LOOP ( 'NONE', ( #141 ) ) ;
#260 = COORDINATED_UNIVERSAL_TIME_OFFSET ( 1, 0, .AHEAD. ) ;
#261 = CARTESIAN_POINT ( 'NONE',  ( 0.3171501829524913108, 0.000000000000000000, -1.107323945389309064E-15 ) ) ;
#262 = EDGE_LOOP ( 'NONE', ( #209 ) ) ;
#263 = PRODUCT ( '953220', '953220', '', ( #97 ) ) ;
#264 = DIRECTION ( 'NONE',  ( 3.491481338843133355E-15, -0.000000000000000000, 1.000000000000000000 ) ) ;
#265 = FACE_OUTER_BOUND ( 'NONE', #125, .T. ) ;
#266 = EDGE_CURVE ( 'NONE', #313, #313, #252, .T. ) ;
#267 = CC_DESIGN_PERSON_AND_ORGANIZATION_ASSIGNMENT ( #21, #19, ( #182 ) ) ;
#268 = ORIENTED_EDGE ( 'NONE', *, *, #348, .F. ) ;
#269 = DIRECTION ( 'NONE',  ( 3.491481338843133355E-15, -0.000000000000000000, 1.000000000000000000 ) ) ;
#270 = ORGANIZATION ( 'UNSPECIFIED', 'UNSPECIFIED', '' ) ;
#271 = DIRECTION ( 'NONE',  ( 1.000000000000000000, 0.000000000000000000, -3.449117306806457175E-15 ) ) ;
#272 = AXIS2_PLACEMENT_3D ( 'NONE', #223, #116, #246 ) ;
#273 = DIRECTION ( 'NONE',  ( 1.000000000000000000, 0.000000000000000000, -3.587081999078715714E-15 ) ) ;
#274 = DIRECTION ( 'NONE',  ( 3.491481338843133355E-15, -0.000000000000000000, 1.000000000000000000 ) ) ;
#275 = CYLINDRICAL_SURFACE ( 'NONE', #321, 0.5949999999999999734 ) ;
#276 = CARTESIAN_POINT ( 'NONE',  ( 2.444036937190190588E-15, 0.000000000000000000, 0.6999999999999992895 ) ) ;
#277 = DIRECTION ( 'NONE',  ( 1.000000000000000000, 0.000000000000000000, -3.462158197852872240E-15 ) ) ;
#278 = FACE_OUTER_BOUND ( 'NONE', #73, .T. ) ;
#279 = ADVANCED_FACE ( 'NONE', ( #55, #336 ), #369, .F. ) ;
#280 = AXIS2_PLACEMENT_3D ( 'NONE', #72, #253, #8 ) ;
#281 = FACE_BOUND ( 'NONE', #351, .T. ) ;
#282 = UNCERTAINTY_MEASURE_WITH_UNIT (LENGTH_MEASURE( 1.000000000000000082E-05 ), #11, 'distance_accuracy_value', 'NONE');
#283 = VERTEX_POINT ( 'NONE', #226 ) ;
#284 = VERTEX_POINT ( 'NONE', #99 ) ;
#285 = AXIS2_PLACEMENT_3D ( 'NONE', #293, #50, #85 ) ;
#286 = ORIENTED_EDGE ( 'NONE', *, *, #65, .T. ) ;
#287 = PRODUCT_DEFINITION_SHAPE ( 'NONE', 'NONE',  #379 ) ;
#288 = EDGE_LOOP ( 'NONE', ( #268 ) ) ;
#289 = APPROVAL_DATE_TIME ( #201, #239 ) ;
#290 = PERSON_AND_ORGANIZATION ( #216, #270 ) ;
#291 = EDGE_LOOP ( 'NONE', ( #48 ) ) ;
#292 = ORIENTED_EDGE ( 'NONE', *, *, #361, .F. ) ;
#293 = CARTESIAN_POINT ( 'NONE',  ( 6.619266704890104357E-16, 0.000000000000000000, 0.1895833333333332704 ) ) ;
#294 = ADVANCED_FACE ( 'NONE', ( #303, #27 ), #115, .T. ) ;
#295 = CARTESIAN_POINT ( 'NONE',  ( 1.883945139084117760E-15, 0.000000000000000000, 0.5395833333333364124 ) ) ;
#296 = CONICAL_SURFACE ( 'NONE', #78, 1.499999999999996447, 0.7853981633974501664 ) ;
#297 = EDGE_LOOP ( 'NONE', ( #214 ) ) ;
#298 = DIRECTION ( 'NONE',  ( 1.000000000000000000, 0.000000000000000000, -2.449661122972862797E-15 ) ) ;
#299 = CALENDAR_DATE ( 2023, 27, 9 ) ;
#300 = FACE_OUTER_BOUND ( 'NONE', #111, .T. ) ;
#301 = CONICAL_SURFACE ( 'NONE', #128, 0.5949999999999998623, 1.047197551196622278 ) ;
#302 =( GEOMETRIC_REPRESENTATION_CONTEXT ( 3 ) GLOBAL_UNCERTAINTY_ASSIGNED_CONTEXT ( ( #282 ) ) GLOBAL_UNIT_ASSIGNED_CONTEXT ( ( #11, #71, #41 ) ) REPRESENTATION_CONTEXT ( 'NONE', 'WORKASPACE' ) );
#303 = FACE_OUTER_BOUND ( 'NONE', #208, .T. ) ;
#304 = CONICAL_SURFACE ( 'NONE', #46, 0.3929274057836296130, 1.047197551196596521 ) ;
#305 = VERTEX_POINT ( 'NONE', #261 ) ;
#306 = CARTESIAN_POINT ( 'NONE',  ( 1.782110266701180152E-15, 0.000000000000000000, 0.5104166666666659635 ) ) ;
#307 = DIRECTION ( 'NONE',  ( 1.000000000000000000, 0.000000000000000000, -3.491481338843133355E-15 ) ) ;
#308 = CARTESIAN_POINT ( 'NONE',  ( 6.619266704890104357E-16, 0.000000000000000000, 0.1895833333333332704 ) ) ;
#309 = DIRECTION ( 'NONE',  ( 3.491481338843133355E-15, -0.000000000000000000, 1.000000000000000000 ) ) ;
#310 = VERTEX_POINT ( 'NONE', #57 ) ;
#311 = CC_DESIGN_DATE_AND_TIME_ASSIGNMENT ( #237, #84, ( #379 ) ) ;
#312 = CARTESIAN_POINT ( 'NONE',  ( 1.316288464743861212E-13, 0.000000000000000000, 37.69999999999999574 ) ) ;
#313 = VERTEX_POINT ( 'NONE', #202 ) ;
#314 = AXIS2_PLACEMENT_3D ( 'NONE', #386, #174, #18 ) ;
#315 = DIRECTION ( 'NONE',  ( 3.491481338843133355E-15, -0.000000000000000000, 1.000000000000000000 ) ) ;
#316 = EDGE_LOOP ( 'NONE', ( #183 ) ) ;
#317 = CARTESIAN_POINT ( 'NONE',  ( 2.291284628615796404E-15, 0.000000000000000000, 0.6562499999999971134 ) ) ;
#318 = EDGE_LOOP ( 'NONE', ( #129 ) ) ;
#319 = AXIS2_PLACEMENT_3D ( 'NONE', #54, #193, #273 ) ;
#320 = CALENDAR_DATE ( 2023, 27, 9 ) ;
#321 = AXIS2_PLACEMENT_3D ( 'NONE', #338, #309, #161 ) ;
#322 = EDGE_LOOP ( 'NONE', ( #81 ) ) ;
#323 = ORIENTED_EDGE ( 'NONE', *, *, #123, .F. ) ;
#324 = EDGE_CURVE ( 'NONE', #66, #66, #188, .T. ) ;
#325 = FACE_OUTER_BOUND ( 'NONE', #104, .T. ) ;
#326 = ORIENTED_EDGE ( 'NONE', *, *, #238, .F. ) ;
#327 = PERSON_AND_ORGANIZATION_ROLE ( 'creator' ) ;
#328 = AXIS2_PLACEMENT_3D ( 'NONE', #101, #254, #372 ) ;
#329 = PLANE ( 'NONE',  #314 ) ;
#330 = FACE_OUTER_BOUND ( 'NONE', #131, .T. ) ;
#331 = ADVANCED_FACE ( 'NONE', ( #162, #68 ), #165, .T. ) ;
#332 = CALENDAR_DATE ( 2023, 27, 9 ) ;
#333 = CARTESIAN_POINT ( 'NONE',  ( 1.374770777169477842E-15, 0.000000000000000000, 0.3937499999999982681 ) ) ;
#334 = CYLINDRICAL_SURFACE ( 'NONE', #44, 0.3929274057836296130 ) ;
#335 = CIRCLE ( 'NONE', #56, 0.3171501829524913108 ) ;
#336 = FACE_OUTER_BOUND ( 'NONE', #62, .T. ) ;
#337 = FACE_BOUND ( 'NONE', #106, .T. ) ;
#338 = CARTESIAN_POINT ( 'NONE',  ( 1.326762908760390423E-13, 0.000000000000000000, 38.00000000000000000 ) ) ;
#339 = AXIS2_PLACEMENT_3D ( 'NONE', #371, #3, #127 ) ;
#340 = CIRCLE ( 'NONE', #319, 0.3929274057836296130 ) ;
#341 = CARTESIAN_POINT ( 'NONE',  ( 0.000000000000000000, 0.000000000000000000, 0.000000000000000000 ) ) ;
#342 = DIRECTION ( 'NONE',  ( 3.491481338843133355E-15, -0.000000000000000000, 1.000000000000000000 ) ) ;
#343 = CONICAL_SURFACE ( 'NONE', #285, 0.5949999999999999734, 1.047197551196596521 ) ;
#344 = CALENDAR_DATE ( 2023, 27, 9 ) ;
#345 = AXIS2_PLACEMENT_3D ( 'NONE', #317, #315, #133 ) ;
#346 = CARTESIAN_POINT ( 'NONE',  ( 0.3929274057836307787, 0.000000000000000000, 0.3062499999999996336 ) ) ;
#347 = EDGE_LOOP ( 'NONE', ( #147 ) ) ;
#348 = EDGE_CURVE ( 'NONE', #13, #13, #389, .T. ) ;
#349 = EDGE_LOOP ( 'NONE', ( #79 ) ) ;
#350 = APPLICATION_PROTOCOL_DEFINITION ( 'international standard', 'config_control_design', 1994, #122 ) ;
#351 = EDGE_LOOP ( 'NONE', ( #292 ) ) ;
#352 = CYLINDRICAL_SURFACE ( 'NONE', #93, 0.3199999999999997291 ) ;
#353 = EDGE_CURVE ( 'NONE', #284, #284, #64, .T. ) ;
#354 = PRODUCT_DEFINITION_FORMATION_WITH_SPECIFIED_SOURCE ( 'ANY', '', #263, .NOT_KNOWN. ) ;
#355 = ORIENTED_EDGE ( 'NONE', *, *, #194, .T. ) ;
#356 = DIRECTION ( 'NONE',  ( 3.491481338843133355E-15, -0.000000000000000000, 1.000000000000000000 ) ) ;
#357 = APPROVAL_STATUS ( 'not_yet_approved' ) ;
#358 = ORIENTED_EDGE ( 'NONE', *, *, #361, .T. ) ;
#359 = APPROVAL_ROLE ( '' ) ;
#360 = DIRECTION ( 'NONE',  ( 1.000000000000000000, 0.000000000000000000, -3.491481338843133355E-15 ) ) ;
#361 = EDGE_CURVE ( 'NONE', #229, #229, #112, .T. ) ;
#362 = ORIENTED_EDGE ( 'NONE', *, *, #266, .T. ) ;
#363 = DIRECTION ( 'NONE',  ( 1.000000000000000000, 0.000000000000000000, -3.507712910982514647E-15 ) ) ;
#364 = CARTESIAN_POINT ( 'NONE',  ( 1.326762908760390423E-13, 0.000000000000000000, 38.00000000000000000 ) ) ;
#365 = ADVANCED_FACE ( 'NONE', ( #281, #110 ), #343, .T. ) ;
#366 = DIRECTION ( 'NONE',  ( 3.491481338843133355E-15, -0.000000000000000000, 1.000000000000000000 ) ) ;
#367 = DIRECTION ( 'NONE',  ( -3.491481338843133355E-15, 0.000000000000000000, -1.000000000000000000 ) ) ;
#368 = FACE_OUTER_BOUND ( 'NONE', #232, .T. ) ;
#369 = TOROIDAL_SURFACE ( 'NONE', #75, 1.319999999999999618, 1.000000000000000000 ) ;
#370 = CC_DESIGN_APPROVAL ( #247, ( #379 ) ) ;
#371 = CARTESIAN_POINT ( 'NONE',  ( 1.069266160020712943E-15, 0.000000000000000000, 0.3062500000000009659 ) ) ;
#372 = DIRECTION ( 'NONE',  ( 1.000000000000000000, 0.000000000000000000, 0.000000000000000000 ) ) ;
#373 = CARTESIAN_POINT ( 'NONE',  ( 0.3929274057836318890, 0.000000000000000000, 0.6562499999999956701 ) ) ;
#374 = APPROVAL ( #357, 'UNSPECIFIED' ) ;
#375 = ADVANCED_BREP_SHAPE_REPRESENTATION ( '953220', ( #98, #328 ), #302 ) ;
#376 = LOCAL_TIME ( 7, 49, 5.000000000000000000, #16 ) ;
#377 = SHAPE_DEFINITION_REPRESENTATION ( #287, #375 ) ;
#378 = COORDINATED_UNIVERSAL_TIME_OFFSET ( 1, 0, .AHEAD. ) ;
#379 = PRODUCT_DEFINITION ( 'UNKNOWN', '', #354, #9 ) ;
#380 = DIRECTION ( 'NONE',  ( 3.491481338843133355E-15, -0.000000000000000000, 1.000000000000000000 ) ) ;
#381 = CARTESIAN_POINT ( 'NONE',  ( 1.500000000000028866, 0.000000000000000000, 8.235472450518781073 ) ) ;
#382 = DIRECTION ( 'NONE',  ( 1.000000000000000000, 0.000000000000000000, 0.000000000000000000 ) ) ;
#383 = CIRCLE ( 'NONE', #58, 0.3199999999999995626 ) ;
#384 = AXIS2_PLACEMENT_3D ( 'NONE', #333, #160, #243 ) ;
#385 = ORIENTED_EDGE ( 'NONE', *, *, #353, .T. ) ;
#386 = CARTESIAN_POINT ( 'NONE',  ( 1.326762908760390423E-13, 1.199999999999993516, 38.00000000000000000 ) ) ;
#387 = ADVANCED_FACE ( 'NONE', ( #158, #119 ), #275, .T. ) ;
#388 = CARTESIAN_POINT ( 'NONE',  ( 1.316288464743861212E-13, 0.000000000000000000, 37.69999999999999574 ) ) ;
#389 = CIRCLE ( 'NONE', #345, 0.3929274057836296130 ) ;
#390 = CARTESIAN_POINT ( 'NONE',  ( 1.326762908760390423E-13, 0.000000000000000000, 38.00000000000000000 ) ) ;
#391 = ADVANCED_FACE ( 'NONE', ( #96, #278 ), #334, .T. ) ;
#392 = DIRECTION ( 'NONE',  ( 3.491481338843133355E-15, -0.000000000000000000, 1.000000000000000000 ) ) ;
#393 = FACE_BOUND ( 'NONE', #10, .T. ) ;
#394 = DIRECTION ( 'NONE',  ( 3.491481338843133355E-15, -0.000000000000000000, 1.000000000000000000 ) ) ;
#395 = DIRECTION ( 'NONE',  ( 3.491481338843133355E-15, -0.000000000000000000, 1.000000000000000000 ) ) ;
ENDSEC;
END-ISO-10303-21;
