ISO-10303-21;
HEADER;
FILE_DESCRIPTION (( 'STEP AP203' ),
    '1' );
FILE_NAME ('953219.step',
    '2023-09-27T05:49:05',
    ( '' ),
    ( '' ),
    'SwSTEP 2.0',
    'SolidWorks 2022',
    '' );
FILE_SCHEMA (( 'CONFIG_CONTROL_DESIGN' ));
ENDSEC;

DATA;
#1 = AXIS2_PLACEMENT_3D ( 'NONE', #246, #374, #341 ) ;
#2 = CARTESIAN_POINT ( 'NONE',  ( 1.614810119214940894E-15, 0.000000000000000000, 0.4624999999999976352 ) ) ;
#3 = EDGE_CURVE ( 'NONE', #114, #114, #176, .T. ) ;
#4 = ORIENTED_EDGE ( 'NONE', *, *, #157, .F. ) ;
#5 = EDGE_LOOP ( 'NONE', ( #367 ) ) ;
#6 = AXIS2_PLACEMENT_3D ( 'NONE', #344, #45, #165 ) ;
#7 = LOCAL_TIME ( 7, 49, 5.000000000000000000, #258 ) ;
#8 = ORIENTED_EDGE ( 'NONE', *, *, #3, .T. ) ;
#9 = CC_DESIGN_DATE_AND_TIME_ASSIGNMENT ( #382, #190, ( #181 ) ) ;
#10 = PRODUCT_DEFINITION_SHAPE ( 'NONE', 'NONE',  #230 ) ;
#11 = ORIENTED_EDGE ( 'NONE', *, *, #292, .T. ) ;
#12 = DIRECTION ( 'NONE',  ( 3.491481338843133355E-15, -0.000000000000000000, 1.000000000000000000 ) ) ;
#13 = CARTESIAN_POINT ( 'NONE',  ( 2.094888803305879224E-15, 0.3517949192431112371, 0.5999999999999998668 ) ) ;
#14 = CC_DESIGN_PERSON_AND_ORGANIZATION_ASSIGNMENT ( #343, #324, ( #364 ) ) ;
#15 = CC_DESIGN_SECURITY_CLASSIFICATION ( #181, ( #364 ) ) ;
#16 = CARTESIAN_POINT ( 'NONE',  ( 1.316288464743861212E-13, 0.000000000000000000, 37.69999999999999574 ) ) ;
#17 = COORDINATED_UNIVERSAL_TIME_OFFSET ( 1, 0, .AHEAD. ) ;
#18 = CARTESIAN_POINT ( 'NONE',  ( 1.207640215041065256E-14, 0.000000000000000000, 3.458819045102513812 ) ) ;
#19 = APPROVAL_STATUS ( 'not_yet_approved' ) ;
#20 = FACE_BOUND ( 'NONE', #315, .T. ) ;
#21 = CONICAL_SURFACE ( 'NONE', #188, 0.2868430139592785810, 1.047197551196603404 ) ;
#22 = EDGE_CURVE ( 'NONE', #267, #267, #329, .T. ) ;
#23 = DIRECTION ( 'NONE',  ( 1.000000000000000000, 0.000000000000000000, -2.990902544787599676E-15 ) ) ;
#24 = FACE_OUTER_BOUND ( 'NONE', #76, .T. ) ;
#25 = CIRCLE ( 'NONE', #269, 0.3517949192431112371 ) ;
#26 = CONICAL_SURFACE ( 'NONE', #39, 1.499999999999996447, 0.7853981633974501664 ) ;
#27 = DIRECTION ( 'NONE',  ( 1.000000000000000000, 0.000000000000000000, 0.000000000000000000 ) ) ;
#28 = DIRECTION ( 'NONE',  ( 3.491481338843133355E-15, -0.000000000000000000, 1.000000000000000000 ) ) ;
#29 = ADVANCED_FACE ( 'NONE', ( #70 ), #220, .F. ) ;
#30 = FACE_OUTER_BOUND ( 'NONE', #141, .T. ) ;
#31 = CARTESIAN_POINT ( 'NONE',  ( 0.5250000000000015765, 0.000000000000000000, 0.4374999999999985567 ) ) ;
#32 = CIRCLE ( 'NONE', #250, 0.5250000000000000222 ) ;
#33 = DIRECTION ( 'NONE',  ( 1.000000000000000000, 0.000000000000000000, 0.000000000000000000 ) ) ;
#34 = ORIENTED_EDGE ( 'NONE', *, *, #272, .F. ) ;
#35 = FACE_OUTER_BOUND ( 'NONE', #98, .T. ) ;
#36 = VERTEX_POINT ( 'NONE', #69 ) ;
#37 = EDGE_LOOP ( 'NONE', ( #145 ) ) ;
#38 = ADVANCED_FACE ( 'NONE', ( #73, #282 ), #149, .T. ) ;
#39 = AXIS2_PLACEMENT_3D ( 'NONE', #16, #257, #131 ) ;
#40 = ORIENTED_EDGE ( 'NONE', *, *, #213, .T. ) ;
#41 = CARTESIAN_POINT ( 'NONE',  ( 1.500000000000127898, 0.000000000000000000, 37.69999999999998863 ) ) ;
#42 = ORIENTED_EDGE ( 'NONE', *, *, #96, .F. ) ;
#43 = ADVANCED_FACE ( 'NONE', ( #212, #209 ), #53, .T. ) ;
#44 = FACE_OUTER_BOUND ( 'NONE', #113, .T. ) ;
#45 = DIRECTION ( 'NONE',  ( 3.491481338843133355E-15, -0.000000000000000000, 1.000000000000000000 ) ) ;
#46 = AXIS2_PLACEMENT_3D ( 'NONE', #334, #199, #201 ) ;
#47 = LOCAL_TIME ( 7, 49, 5.000000000000000000, #161 ) ;
#48 = CALENDAR_DATE ( 2023, 27, 9 ) ;
#49 = DIRECTION ( 'NONE',  ( 3.491481338843133355E-15, -0.000000000000000000, 1.000000000000000000 ) ) ;
#50 = DATE_AND_TIME ( #48, #7 ) ;
#51 = DIRECTION ( 'NONE',  ( 1.000000000000000000, 0.000000000000000000, 0.000000000000000000 ) ) ;
#52 = CARTESIAN_POINT ( 'NONE',  ( 1.326762908760390423E-13, 0.000000000000000000, 38.00000000000000000 ) ) ;
#53 = CONICAL_SURFACE ( 'NONE', #377, 0.5250000000000000222, 1.047197551196618281 ) ;
#54 = DIRECTION ( 'NONE',  ( 1.000000000000000000, 0.000000000000000000, 0.000000000000000000 ) ) ;
#55 = EDGE_CURVE ( 'NONE', #362, #362, #25, .T. ) ;
#56 = APPLICATION_CONTEXT ( 'configuration controlled 3d designs of mechanical parts and assemblies' ) ;
#57 = DIRECTION ( 'NONE',  ( 1.000000000000000000, 0.000000000000000000, -3.491481338843133355E-15 ) ) ;
#58 = EDGE_LOOP ( 'NONE', ( #278 ) ) ;
#59 = VERTEX_POINT ( 'NONE', #171 ) ;
#60 = FACE_OUTER_BOUND ( 'NONE', #266, .T. ) ;
#61 = EDGE_LOOP ( 'NONE', ( #241 ) ) ;
#62 = CARTESIAN_POINT ( 'NONE',  ( 0.3517949192431125693, 0.000000000000000000, 0.3374999999999963030 ) ) ;
#63 = ORIENTED_EDGE ( 'NONE', *, *, #138, .T. ) ;
#64 = AXIS2_PLACEMENT_3D ( 'NONE', #91, #332, #27 ) ;
#65 = DIRECTION ( 'NONE',  ( 1.000000000000000000, 0.000000000000000000, -3.390106918826424984E-15 ) ) ;
#66 = PRODUCT ( '953219', '953219', '', ( #133 ) ) ;
#67 = CC_DESIGN_PERSON_AND_ORGANIZATION_ASSIGNMENT ( #77, #227, ( #364 ) ) ;
#68 = ORIENTED_EDGE ( 'NONE', *, *, #96, .T. ) ;
#69 = CARTESIAN_POINT ( 'NONE',  ( 0.5250000000000004663, 0.000000000000000000, 0.1374999999999969025 ) ) ;
#70 = FACE_OUTER_BOUND ( 'NONE', #129, .T. ) ;
#71 = VERTEX_POINT ( 'NONE', #270 ) ;
#72 = AXIS2_PLACEMENT_3D ( 'NONE', #83, #387, #321 ) ;
#73 = FACE_OUTER_BOUND ( 'NONE', #295, .T. ) ;
#74 = CC_DESIGN_PERSON_AND_ORGANIZATION_ASSIGNMENT ( #187, #130, ( #230 ) ) ;
#75 = PERSON_AND_ORGANIZATION ( #318, #197 ) ;
#76 = EDGE_LOOP ( 'NONE', ( #280 ) ) ;
#77 = PERSON_AND_ORGANIZATION ( #318, #197 ) ;
#78 = CARTESIAN_POINT ( 'NONE',  ( 1.963958253099264484E-15, 0.000000000000000000, 0.5625000000000004441 ) ) ;
#79 = APPROVAL_DATE_TIME ( #281, #331 ) ;
#80 = AXIS2_PLACEMENT_3D ( 'NONE', #196, #49, #54 ) ;
#81 = FACE_OUTER_BOUND ( 'NONE', #238, .T. ) ;
#82 = PERSON_AND_ORGANIZATION_ROLE ( 'classification_officer' ) ;
#83 = CARTESIAN_POINT ( 'NONE',  ( 1.178374951859548830E-15, 0.000000000000000000, 0.3374999999999975242 ) ) ;
#84 = ADVANCED_FACE ( 'NONE', ( #184, #44 ), #153, .F. ) ;
#85 = PERSON_AND_ORGANIZATION ( #318, #197 ) ;
#86 = DIRECTION ( 'NONE',  ( 3.491481338843133355E-15, -0.000000000000000000, 1.000000000000000000 ) ) ;
#87 = CARTESIAN_POINT ( 'NONE',  ( 2.739916928062874738E-14, 0.000000000000000000, 7.847433974745854357 ) ) ;
#88 = CIRCLE ( 'NONE', #72, 0.3517949192431113481 ) ;
#89 = EDGE_CURVE ( 'NONE', #303, #303, #384, .T. ) ;
#90 = DIRECTION ( 'NONE',  ( 3.491481338843133355E-15, -0.000000000000000000, 1.000000000000000000 ) ) ;
#91 = CARTESIAN_POINT ( 'NONE',  ( 1.326762908760390423E-13, 0.000000000000000000, 38.00000000000000000 ) ) ;
#92 = CYLINDRICAL_SURFACE ( 'NONE', #304, 0.3517949192431112926 ) ;
#93 = ADVANCED_FACE ( 'NONE', ( #35, #147 ), #354, .T. ) ;
#94 = VERTEX_POINT ( 'NONE', #62 ) ;
#95 = ORIENTED_EDGE ( 'NONE', *, *, #22, .T. ) ;
#96 = EDGE_CURVE ( 'NONE', #59, #59, #243, .T. ) ;
#97 = LOCAL_TIME ( 7, 49, 5.000000000000000000, #17 ) ;
#98 = EDGE_LOOP ( 'NONE', ( #34 ) ) ;
#99 = ORIENTED_EDGE ( 'NONE', *, *, #89, .T. ) ;
#100 = DIRECTION ( 'NONE',  ( 3.491481338843133355E-15, -0.000000000000000000, 1.000000000000000000 ) ) ;
#101 = AXIS2_PLACEMENT_3D ( 'NONE', #140, #193, #327 ) ;
#102 = CARTESIAN_POINT ( 'NONE',  ( 2.094888803305867391E-15, 0.000000000000000000, 0.5999999999999963141 ) ) ;
#103 = APPROVAL_STATUS ( 'not_yet_approved' ) ;
#104 = CARTESIAN_POINT ( 'NONE',  ( 4.800786840909263990E-16, 0.000000000000000000, 0.1374999999999987343 ) ) ;
#105 = CALENDAR_DATE ( 2023, 27, 9 ) ;
#106 = DIRECTION ( 'NONE',  ( -1.000000000000000000, 0.000000000000000000, 3.491481338843133355E-15 ) ) ;
#107 = EDGE_CURVE ( 'NONE', #298, #298, #319, .T. ) ;
#108 = DIRECTION ( 'NONE',  ( 3.491481338843133355E-15, -0.000000000000000000, 1.000000000000000000 ) ) ;
#109 = APPROVAL_ROLE ( '' ) ;
#110 = DIRECTION ( 'NONE',  ( 1.000000000000000000, 0.000000000000000000, -3.491481338843133355E-15 ) ) ;
#111 = DIRECTION ( 'NONE',  ( 3.491481338843133355E-15, -0.000000000000000000, 1.000000000000000000 ) ) ;
#112 = CIRCLE ( 'NONE', #336, 1.499999999999996447 ) ;
#113 = EDGE_LOOP ( 'NONE', ( #393 ) ) ;
#114 = VERTEX_POINT ( 'NONE', #143 ) ;
#115 = ORIENTED_EDGE ( 'NONE', *, *, #300, .T. ) ;
#116 = EDGE_LOOP ( 'NONE', ( #178 ) ) ;
#117 = AXIS2_PLACEMENT_3D ( 'NONE', #163, #136, #389 ) ;
#118 = DIRECTION ( 'NONE',  ( 3.491481338843133355E-15, -0.000000000000000000, 1.000000000000000000 ) ) ;
#119 = EDGE_LOOP ( 'NONE', ( #299 ) ) ;
#120 = ORIENTED_EDGE ( 'NONE', *, *, #180, .T. ) ;
#121 = ORIENTED_EDGE ( 'NONE', *, *, #157, .T. ) ;
#122 = CIRCLE ( 'NONE', #210, 0.2899999999999998690 ) ;
#123 = CARTESIAN_POINT ( 'NONE',  ( 0.3517949192431133465, 0.000000000000000000, 0.5624999999999993339 ) ) ;
#124 = ORIENTED_EDGE ( 'NONE', *, *, #355, .T. ) ;
#125 = ADVANCED_FACE ( 'NONE', ( #81, #222 ), #229, .T. ) ;
#126 = CARTESIAN_POINT ( 'NONE',  ( 5.673657175620194254E-16, 0.000000000000000000, 0.1625000000000029199 ) ) ;
#127 =( NAMED_UNIT ( * ) SI_UNIT ( $, .STERADIAN. ) SOLID_ANGLE_UNIT ( ) );
#128 = CIRCLE ( 'NONE', #175, 0.5250000000000000222 ) ;
#129 = EDGE_LOOP ( 'NONE', ( #174 ) ) ;
#130 = PERSON_AND_ORGANIZATION_ROLE ( 'creator' ) ;
#131 = DIRECTION ( 'NONE',  ( -1.000000000000000000, 0.000000000000000000, 4.625929269271496366E-15 ) ) ;
#132 = CC_DESIGN_PERSON_AND_ORGANIZATION_ASSIGNMENT ( #85, #82, ( #181 ) ) ;
#133 = MECHANICAL_CONTEXT ( 'NONE', #228, 'mechanical' ) ;
#134 = FACE_OUTER_BOUND ( 'NONE', #205, .T. ) ;
#135 = AXIS2_PLACEMENT_3D ( 'NONE', #78, #86, #191 ) ;
#136 = DIRECTION ( 'NONE',  ( 3.491481338843133355E-15, -0.000000000000000000, 1.000000000000000000 ) ) ;
#137 = APPROVAL_STATUS ( 'not_yet_approved' ) ;
#138 = EDGE_CURVE ( 'NONE', #94, #94, #88, .T. ) ;
#139 = CARTESIAN_POINT ( 'NONE',  ( 1.326762908760390423E-13, 1.199999999999993516, 38.00000000000000000 ) ) ;
#140 = CARTESIAN_POINT ( 'NONE',  ( 1.326762908760390423E-13, 0.000000000000000000, 38.00000000000000000 ) ) ;
#141 = EDGE_LOOP ( 'NONE', ( #121 ) ) ;
#142 = AXIS2_PLACEMENT_3D ( 'NONE', #366, #28, #57 ) ;
#143 = CARTESIAN_POINT ( 'NONE',  ( 0.2868430139592785810, 0.000000000000000000, -1.001507030416341577E-15 ) ) ;
#144 = DIRECTION ( 'NONE',  ( 3.491481338843133355E-15, -0.000000000000000000, 1.000000000000000000 ) ) ;
#145 = ORIENTED_EDGE ( 'NONE', *, *, #107, .T. ) ;
#146 = FACE_BOUND ( 'NONE', #37, .T. ) ;
#147 = FACE_OUTER_BOUND ( 'NONE', #309, .T. ) ;
#148 = EDGE_LOOP ( 'NONE', ( #40 ) ) ;
#149 = CONICAL_SURFACE ( 'NONE', #259, 0.3517949192431113481, 1.047197551196587861 ) ;
#150 = EDGE_LOOP ( 'NONE', ( #95 ) ) ;
#151 = EDGE_LOOP ( 'NONE', ( #8 ) ) ;
#152 = CARTESIAN_POINT ( 'NONE',  ( 0.000000000000000000, 0.000000000000000000, 0.000000000000000000 ) ) ;
#153 = PLANE ( 'NONE',  #311 ) ;
#154 = PERSON_AND_ORGANIZATION ( #318, #197 ) ;
#155 = TOROIDAL_SURFACE ( 'NONE', #142, 1.289999999999999591, 1.000000000000000000 ) ;
#156 = DIRECTION ( 'NONE',  ( 3.491481338843133355E-15, -0.000000000000000000, 1.000000000000000000 ) ) ;
#157 = EDGE_CURVE ( 'NONE', #173, #173, #122, .T. ) ;
#158 = SECURITY_CLASSIFICATION_LEVEL ( 'unclassified' ) ;
#159 = DIRECTION ( 'NONE',  ( 3.491481338843133355E-15, -0.000000000000000000, 1.000000000000000000 ) ) ;
#160 = DIRECTION ( 'NONE',  ( 1.000000000000000000, 0.000000000000000000, -3.469446951953614189E-15 ) ) ;
#161 = COORDINATED_UNIVERSAL_TIME_OFFSET ( 1, 0, .AHEAD. ) ;
#162 = AXIS2_PLACEMENT_3D ( 'NONE', #394, #90, #167 ) ;
#163 = CARTESIAN_POINT ( 'NONE',  ( 5.673657175620194254E-16, 0.000000000000000000, 0.1625000000000029199 ) ) ;
#164 = LOCAL_TIME ( 7, 49, 5.000000000000000000, #289 ) ;
#165 = DIRECTION ( 'NONE',  ( 1.000000000000000000, 0.000000000000000000, 0.000000000000000000 ) ) ;
#166 = FACE_OUTER_BOUND ( 'NONE', #335, .T. ) ;
#167 = DIRECTION ( 'NONE',  ( 1.000000000000000000, 0.000000000000000000, -4.014644524383235477E-15 ) ) ;
#168 = APPROVAL ( #19, 'UNSPECIFIED' ) ;
#169 = EDGE_LOOP ( 'NONE', ( #124 ) ) ;
#170 = FACE_OUTER_BOUND ( 'NONE', #338, .T. ) ;
#171 = CARTESIAN_POINT ( 'NONE',  ( 0.3517949192431121253, 0.000000000000000000, 0.2624999999999976241 ) ) ;
#172 = EDGE_LOOP ( 'NONE', ( #179 ) ) ;
#173 = VERTEX_POINT ( 'NONE', #308 ) ;
#174 = ORIENTED_EDGE ( 'NONE', *, *, #3, .F. ) ;
#175 = AXIS2_PLACEMENT_3D ( 'NONE', #2, #118, #359 ) ;
#176 = CIRCLE ( 'NONE', #369, 0.2868430139592785810 ) ;
#177 = DIRECTION ( 'NONE',  ( 3.491481338843133355E-15, -0.000000000000000000, 1.000000000000000000 ) ) ;
#178 = ORIENTED_EDGE ( 'NONE', *, *, #138, .F. ) ;
#179 = ORIENTED_EDGE ( 'NONE', *, *, #292, .F. ) ;
#180 = EDGE_CURVE ( 'NONE', #36, #36, #217, .T. ) ;
#181 = SECURITY_CLASSIFICATION ( '', '', #158 ) ;
#182 = CARTESIAN_POINT ( 'NONE',  ( 1.178374951859548830E-15, 0.000000000000000000, 0.3374999999999975242 ) ) ;
#183 = DIRECTION ( 'NONE',  ( 0.000000000000000000, 0.000000000000000000, 1.000000000000000000 ) ) ;
#184 = FACE_BOUND ( 'NONE', #61, .T. ) ;
#185 = ADVANCED_FACE ( 'NONE', ( #352, #317 ), #21, .T. ) ;
#186 = DIRECTION ( 'NONE',  ( 3.491481338843133355E-15, -0.000000000000000000, 1.000000000000000000 ) ) ;
#187 = PERSON_AND_ORGANIZATION ( #318, #197 ) ;
#188 = AXIS2_PLACEMENT_3D ( 'NONE', #381, #159, #110 ) ;
#189 = DIRECTION ( 'NONE',  ( 1.000000000000000000, 0.000000000000000000, -4.014644524383235477E-15 ) ) ;
#190 = DATE_TIME_ROLE ( 'classification_date' ) ;
#191 = DIRECTION ( 'NONE',  ( 1.000000000000000000, 0.000000000000000000, -3.390106918826424195E-15 ) ) ;
#192 = DATE_AND_TIME ( #353, #47 ) ;
#193 = DIRECTION ( 'NONE',  ( 3.491481338843133355E-15, -0.000000000000000000, 1.000000000000000000 ) ) ;
#194 = ADVANCED_FACE ( 'NONE', ( #261, #285 ), #255, .T. ) ;
#195 = AXIS2_PLACEMENT_3D ( 'NONE', #379, #177, #307 ) ;
#196 = CARTESIAN_POINT ( 'NONE',  ( 1.326762908760390423E-13, 0.000000000000000000, 38.00000000000000000 ) ) ;
#197 = ORGANIZATION ( 'UNSPECIFIED', 'UNSPECIFIED', '' ) ;
#198 = APPROVAL_DATE_TIME ( #192, #168 ) ;
#199 = DIRECTION ( 'NONE',  ( -3.491481338843133355E-15, 0.000000000000000000, -1.000000000000000000 ) ) ;
#200 = ADVANCED_FACE ( 'NONE', ( #20, #24 ), #26, .T. ) ;
#201 = DIRECTION ( 'NONE',  ( -1.000000000000000000, 0.000000000000000000, 3.510749891857823562E-15 ) ) ;
#202 = CARTESIAN_POINT ( 'NONE',  ( 0.3517949192431134020, 0.000000000000000000, 0.5999999999999952038 ) ) ;
#203 = AXIS2_PLACEMENT_3D ( 'NONE', #104, #293, #325 ) ;
#204 = FACE_OUTER_BOUND ( 'NONE', #116, .T. ) ;
#205 = EDGE_LOOP ( 'NONE', ( #302 ) ) ;
#206 = CC_DESIGN_PERSON_AND_ORGANIZATION_ASSIGNMENT ( #154, #262, ( #66 ) ) ;
#207 = CARTESIAN_POINT ( 'NONE',  ( 1.326762908760390423E-13, 0.000000000000000000, 38.00000000000000000 ) ) ;
#208 = ORIENTED_EDGE ( 'NONE', *, *, #355, .F. ) ;
#209 = FACE_OUTER_BOUND ( 'NONE', #244, .T. ) ;
#210 = AXIS2_PLACEMENT_3D ( 'NONE', #291, #156, #23 ) ;
#211 = UNCERTAINTY_MEASURE_WITH_UNIT (LENGTH_MEASURE( 1.000000000000000082E-05 ), #388, 'distance_accuracy_value', 'NONE');
#212 = FACE_BOUND ( 'NONE', #271, .T. ) ;
#213 = EDGE_CURVE ( 'NONE', #273, #273, #357, .T. ) ;
#214 = CARTESIAN_POINT ( 'NONE',  ( 1.326762908760390423E-13, 0.000000000000000000, 38.00000000000000000 ) ) ;
#215 = CARTESIAN_POINT ( 'NONE',  ( 0.5250000000000005773, 0.000000000000000000, 0.1625000000000010880 ) ) ;
#216 = DIRECTION ( 'NONE',  ( 1.000000000000000000, 0.000000000000000000, -5.782411586589388010E-15 ) ) ;
#217 = CIRCLE ( 'NONE', #203, 0.5250000000000000222 ) ;
#218 = APPLICATION_PROTOCOL_DEFINITION ( 'international standard', 'config_control_design', 1994, #228 ) ;
#219 =( GEOMETRIC_REPRESENTATION_CONTEXT ( 3 ) GLOBAL_UNCERTAINTY_ASSIGNED_CONTEXT ( ( #211 ) ) GLOBAL_UNIT_ASSIGNED_CONTEXT ( ( #388, #254, #127 ) ) REPRESENTATION_CONTEXT ( 'NONE', 'WORKASPACE' ) );
#220 = PLANE ( 'NONE',  #1 ) ;
#221 = APPROVAL_DATE_TIME ( #351, #306 ) ;
#222 = FACE_OUTER_BOUND ( 'NONE', #328, .T. ) ;
#223 = DIRECTION ( 'NONE',  ( 3.491481338843133355E-15, -0.000000000000000000, 1.000000000000000000 ) ) ;
#224 = AXIS2_PLACEMENT_3D ( 'NONE', #18, #264, #189 ) ;
#225 = CC_DESIGN_APPROVAL ( #168, ( #181 ) ) ;
#226 = DIRECTION ( 'NONE',  ( 1.000000000000000000, 0.000000000000000000, -4.625929269271496366E-15 ) ) ;
#227 = PERSON_AND_ORGANIZATION_ROLE ( 'design_supplier' ) ;
#228 = APPLICATION_CONTEXT ( 'configuration controlled 3d designs of mechanical parts and assemblies' ) ;
#229 = CYLINDRICAL_SURFACE ( 'NONE', #80, 0.2899999999999999245 ) ;
#230 = PRODUCT_DEFINITION ( 'UNKNOWN', '', #364, #277 ) ;
#231 = CARTESIAN_POINT ( 'NONE',  ( 1.316288464743861212E-13, 0.000000000000000000, 37.69999999999999574 ) ) ;
#232 = ADVANCED_FACE ( 'NONE', ( #286 ), #288, .F. ) ;
#233 = ORIENTED_EDGE ( 'NONE', *, *, #361, .T. ) ;
#234 = CARTESIAN_POINT ( 'NONE',  ( 1.200000000000126299, 0.000000000000000000, 37.99999999999999289 ) ) ;
#235 = MANIFOLD_SOLID_BREP ( 'Corps-Déplacer/Copier1', #348 ) ;
#236 = CARTESIAN_POINT ( 'NONE',  ( 1.527523085743872223E-15, 0.000000000000000000, 0.4375000000000003886 ) ) ;
#237 = CIRCLE ( 'NONE', #275, 1.500000000000000000 ) ;
#238 = EDGE_LOOP ( 'NONE', ( #4 ) ) ;
#239 = APPROVAL_PERSON_ORGANIZATION ( #322, #168, #109 ) ;
#240 = CARTESIAN_POINT ( 'NONE',  ( 0.3240741737109417708, 0.000000000000000000, 3.458819045102512479 ) ) ;
#241 = ORIENTED_EDGE ( 'NONE', *, *, #89, .F. ) ;
#242 = DIRECTION ( 'NONE',  ( -3.491481338843133355E-15, 0.000000000000000000, -1.000000000000000000 ) ) ;
#243 = CIRCLE ( 'NONE', #296, 0.3517949192431112371 ) ;
#244 = EDGE_LOOP ( 'NONE', ( #115 ) ) ;
#245 = CARTESIAN_POINT ( 'NONE',  ( 1.500000000000027311, 0.000000000000000000, 7.847433974745849028 ) ) ;
#246 = CARTESIAN_POINT ( 'NONE',  ( 9.488155560231417747E-34, 0.000000000000000000, 2.717515758905708833E-19 ) ) ;
#247 = VERTEX_POINT ( 'NONE', #41 ) ;
#248 = DIRECTION ( 'NONE',  ( -3.491481338843133355E-15, 0.000000000000000000, -1.000000000000000000 ) ) ;
#249 = CC_DESIGN_DATE_AND_TIME_ASSIGNMENT ( #50, #284, ( #230 ) ) ;
#250 = AXIS2_PLACEMENT_3D ( 'NONE', #236, #144, #395 ) ;
#251 = APPROVAL_ROLE ( '' ) ;
#252 = CC_DESIGN_APPROVAL ( #306, ( #364 ) ) ;
#253 = DIRECTION ( 'NONE',  ( -1.000000000000000000, 0.000000000000000000, 3.491481338843133355E-15 ) ) ;
#254 =( NAMED_UNIT ( * ) PLANE_ANGLE_UNIT ( ) SI_UNIT ( $, .RADIAN. ) );
#255 = CYLINDRICAL_SURFACE ( 'NONE', #6, 0.5250000000000000222 ) ;
#256 = CALENDAR_DATE ( 2023, 27, 9 ) ;
#257 = DIRECTION ( 'NONE',  ( -3.491481338843133355E-15, 0.000000000000000000, -1.000000000000000000 ) ) ;
#258 = COORDINATED_UNIVERSAL_TIME_OFFSET ( 1, 0, .AHEAD. ) ;
#259 = AXIS2_PLACEMENT_3D ( 'NONE', #182, #12, #313 ) ;
#260 = PRODUCT_RELATED_PRODUCT_CATEGORY ( 'detail', '', ( #66 ) ) ;
#261 = FACE_OUTER_BOUND ( 'NONE', #5, .T. ) ;
#262 = PERSON_AND_ORGANIZATION_ROLE ( 'design_owner' ) ;
#263 = DIRECTION ( 'NONE',  ( -3.491481338843133355E-15, 0.000000000000000000, -1.000000000000000000 ) ) ;
#264 = DIRECTION ( 'NONE',  ( 3.491481338843133355E-15, -0.000000000000000000, 1.000000000000000000 ) ) ;
#265 = APPROVAL_PERSON_ORGANIZATION ( #75, #331, #345 ) ;
#266 = EDGE_LOOP ( 'NONE', ( #233 ) ) ;
#267 = VERTEX_POINT ( 'NONE', #234 ) ;
#268 = FACE_OUTER_BOUND ( 'NONE', #172, .T. ) ;
#269 = AXIS2_PLACEMENT_3D ( 'NONE', #102, #342, #65 ) ;
#270 = CARTESIAN_POINT ( 'NONE',  ( 0.5250000000000016875, 0.000000000000000000, 0.4624999999999958034 ) ) ;
#271 = EDGE_LOOP ( 'NONE', ( #42 ) ) ;
#272 = EDGE_CURVE ( 'NONE', #247, #247, #112, .T. ) ;
#273 = VERTEX_POINT ( 'NONE', #123 ) ;
#274 = EDGE_LOOP ( 'NONE', ( #120 ) ) ;
#275 = AXIS2_PLACEMENT_3D ( 'NONE', #87, #186, #160 ) ;
#276 = AXIS2_PLACEMENT_3D ( 'NONE', #152, #183, #316 ) ;
#277 = DESIGN_CONTEXT ( 'detailed design', #56, 'design' ) ;
#278 = ORIENTED_EDGE ( 'NONE', *, *, #107, .F. ) ;
#279 = ADVANCED_FACE ( 'NONE', ( #134, #383 ), #323, .T. ) ;
#280 = ORIENTED_EDGE ( 'NONE', *, *, #272, .T. ) ;
#281 = DATE_AND_TIME ( #320, #164 ) ;
#282 = FACE_BOUND ( 'NONE', #360, .T. ) ;
#283 = CONICAL_SURFACE ( 'NONE', #162, 0.3240741737109296694, 0.2617993877991428020 ) ;
#284 = DATE_TIME_ROLE ( 'creation_date' ) ;
#285 = FACE_OUTER_BOUND ( 'NONE', #169, .T. ) ;
#286 = FACE_OUTER_BOUND ( 'NONE', #150, .T. ) ;
#287 = PERSON_AND_ORGANIZATION ( #318, #197 ) ;
#288 = PLANE ( 'NONE',  #290 ) ;
#289 = COORDINATED_UNIVERSAL_TIME_OFFSET ( 1, 0, .AHEAD. ) ;
#290 = AXIS2_PLACEMENT_3D ( 'NONE', #139, #263, #106 ) ;
#291 = CARTESIAN_POINT ( 'NONE',  ( 1.117274028429803147E-14, 0.000000000000000000, 3.200000000000001510 ) ) ;
#292 = EDGE_CURVE ( 'NONE', #375, #375, #237, .T. ) ;
#293 = DIRECTION ( 'NONE',  ( 3.491481338843133355E-15, -0.000000000000000000, 1.000000000000000000 ) ) ;
#294 = CYLINDRICAL_SURFACE ( 'NONE', #64, 0.3517949192431112926 ) ;
#295 = EDGE_LOOP ( 'NONE', ( #208 ) ) ;
#296 = AXIS2_PLACEMENT_3D ( 'NONE', #356, #111, #347 ) ;
#297 = DIRECTION ( 'NONE',  ( 3.491481338843133355E-15, -0.000000000000000000, 1.000000000000000000 ) ) ;
#298 = VERTEX_POINT ( 'NONE', #240 ) ;
#299 = ORIENTED_EDGE ( 'NONE', *, *, #180, .F. ) ;
#300 = EDGE_CURVE ( 'NONE', #373, #373, #326, .T. ) ;
#301 = FACE_OUTER_BOUND ( 'NONE', #58, .T. ) ;
#302 = ORIENTED_EDGE ( 'NONE', *, *, #300, .F. ) ;
#303 = VERTEX_POINT ( 'NONE', #330 ) ;
#304 = AXIS2_PLACEMENT_3D ( 'NONE', #207, #297, #33 ) ;
#305 = ORIENTED_EDGE ( 'NONE', *, *, #55, .F. ) ;
#306 = APPROVAL ( #137, 'UNSPECIFIED' ) ;
#307 = DIRECTION ( 'NONE',  ( 1.000000000000000000, 0.000000000000000000, -3.364765362886048502E-15 ) ) ;
#308 = CARTESIAN_POINT ( 'NONE',  ( 0.2900000000000110822, 0.000000000000000000, 3.200000000000000622 ) ) ;
#309 = EDGE_LOOP ( 'NONE', ( #11 ) ) ;
#310 = ORIENTED_EDGE ( 'NONE', *, *, #22, .F. ) ;
#311 = AXIS2_PLACEMENT_3D ( 'NONE', #13, #242, #253 ) ;
#312 = LOCAL_TIME ( 7, 49, 5.000000000000000000, #378 ) ;
#313 = DIRECTION ( 'NONE',  ( 1.000000000000000000, 0.000000000000000000, -3.544202687863988895E-15 ) ) ;
#314 = ADVANCED_FACE ( 'NONE', ( #170, #358 ), #92, .T. ) ;
#315 = EDGE_LOOP ( 'NONE', ( #310 ) ) ;
#316 = DIRECTION ( 'NONE',  ( 1.000000000000000000, 0.000000000000000000, 0.000000000000000000 ) ) ;
#317 = FACE_BOUND ( 'NONE', #151, .T. ) ;
#318 = PERSON ( 'UNSPECIFIED', 'UNSPECIFIED', 'UNSPECIFIED', ('UNSPECIFIED'), ('UNSPECIFIED'), ('UNSPECIFIED') ) ;
#319 = CIRCLE ( 'NONE', #224, 0.3240741737109296694 ) ;
#320 = CALENDAR_DATE ( 2023, 27, 9 ) ;
#321 = DIRECTION ( 'NONE',  ( 1.000000000000000000, 0.000000000000000000, -3.544202687863988895E-15 ) ) ;
#322 = PERSON_AND_ORGANIZATION ( #318, #197 ) ;
#323 = CYLINDRICAL_SURFACE ( 'NONE', #363, 0.5250000000000000222 ) ;
#324 = PERSON_AND_ORGANIZATION_ROLE ( 'creator' ) ;
#325 = DIRECTION ( 'NONE',  ( 1.000000000000000000, 0.000000000000000000, -3.510749891857823562E-15 ) ) ;
#326 = CIRCLE ( 'NONE', #117, 0.5250000000000000222 ) ;
#327 = DIRECTION ( 'NONE',  ( 1.000000000000000000, 0.000000000000000000, -4.625929269271490844E-15 ) ) ;
#328 = EDGE_LOOP ( 'NONE', ( #99 ) ) ;
#329 = CIRCLE ( 'NONE', #349, 1.199999999999993516 ) ;
#330 = CARTESIAN_POINT ( 'NONE',  ( 0.2900000000000020894, 0.000000000000000000, 0.6000000000000023093 ) ) ;
#331 = APPROVAL ( #103, 'UNSPECIFIED' ) ;
#332 = DIRECTION ( 'NONE',  ( 3.491481338843133355E-15, -0.000000000000000000, 1.000000000000000000 ) ) ;
#333 = EDGE_LOOP ( 'NONE', ( #370 ) ) ;
#334 = CARTESIAN_POINT ( 'NONE',  ( 1.614810119214940894E-15, 0.000000000000000000, 0.4624999999999976352 ) ) ;
#335 = EDGE_LOOP ( 'NONE', ( #68 ) ) ;
#336 = AXIS2_PLACEMENT_3D ( 'NONE', #231, #223, #226 ) ;
#337 = CARTESIAN_POINT ( 'NONE',  ( 0.000000000000000000, 0.000000000000000000, 0.000000000000000000 ) ) ;
#338 = EDGE_LOOP ( 'NONE', ( #305 ) ) ;
#339 = DIRECTION ( 'NONE',  ( 3.491481338843133355E-15, -0.000000000000000000, 1.000000000000000000 ) ) ;
#340 = VERTEX_POINT ( 'NONE', #31 ) ;
#341 = DIRECTION ( 'NONE',  ( 1.000000000000000000, 0.000000000000000000, -3.491481338843133355E-15 ) ) ;
#342 = DIRECTION ( 'NONE',  ( 3.491481338843133355E-15, -0.000000000000000000, 1.000000000000000000 ) ) ;
#343 = PERSON_AND_ORGANIZATION ( #318, #197 ) ;
#344 = CARTESIAN_POINT ( 'NONE',  ( 1.326762908760390423E-13, 0.000000000000000000, 38.00000000000000000 ) ) ;
#345 = APPROVAL_ROLE ( '' ) ;
#346 = ADVANCED_FACE ( 'NONE', ( #268, #146 ), #283, .T. ) ;
#347 = DIRECTION ( 'NONE',  ( 1.000000000000000000, 0.000000000000000000, -3.544202687863989684E-15 ) ) ;
#348 = CLOSED_SHELL ( 'NONE', ( #29, #185, #279, #43, #368, #38, #194, #380, #314, #84, #125, #390, #346, #93, #200, #232 ) ) ;
#349 = AXIS2_PLACEMENT_3D ( 'NONE', #214, #100, #216 ) ;
#350 = CC_DESIGN_APPROVAL ( #331, ( #230 ) ) ;
#351 = DATE_AND_TIME ( #105, #312 ) ;
#352 = FACE_OUTER_BOUND ( 'NONE', #119, .T. ) ;
#353 = CALENDAR_DATE ( 2023, 27, 9 ) ;
#354 = CYLINDRICAL_SURFACE ( 'NONE', #101, 1.499999999999998224 ) ;
#355 = EDGE_CURVE ( 'NONE', #340, #340, #32, .T. ) ;
#356 = CARTESIAN_POINT ( 'NONE',  ( 9.165138514463183642E-16, 0.000000000000000000, 0.2624999999999988454 ) ) ;
#357 = CIRCLE ( 'NONE', #135, 0.3517949192431113481 ) ;
#358 = FACE_OUTER_BOUND ( 'NONE', #148, .T. ) ;
#359 = DIRECTION ( 'NONE',  ( 1.000000000000000000, 0.000000000000000000, -3.510749891857823562E-15 ) ) ;
#360 = EDGE_LOOP ( 'NONE', ( #63 ) ) ;
#361 = EDGE_CURVE ( 'NONE', #71, #71, #128, .T. ) ;
#362 = VERTEX_POINT ( 'NONE', #202 ) ;
#363 = AXIS2_PLACEMENT_3D ( 'NONE', #52, #108, #51 ) ;
#364 = PRODUCT_DEFINITION_FORMATION_WITH_SPECIFIED_SOURCE ( 'ANY', '', #66, .NOT_KNOWN. ) ;
#365 = FACE_BOUND ( 'NONE', #333, .T. ) ;
#366 = CARTESIAN_POINT ( 'NONE',  ( 1.117274028429802674E-14, 0.000000000000000000, 3.200000000000000178 ) ) ;
#367 = ORIENTED_EDGE ( 'NONE', *, *, #361, .F. ) ;
#368 = ADVANCED_FACE ( 'NONE', ( #204, #166 ), #294, .T. ) ;
#369 = AXIS2_PLACEMENT_3D ( 'NONE', #337, #339, #372 ) ;
#370 = ORIENTED_EDGE ( 'NONE', *, *, #213, .F. ) ;
#371 = ADVANCED_BREP_SHAPE_REPRESENTATION ( '953219', ( #235, #276 ), #219 ) ;
#372 = DIRECTION ( 'NONE',  ( 1.000000000000000000, 0.000000000000000000, -3.491481338843133355E-15 ) ) ;
#373 = VERTEX_POINT ( 'NONE', #215 ) ;
#374 = DIRECTION ( 'NONE',  ( 3.491481338843133355E-15, -0.000000000000000000, 1.000000000000000000 ) ) ;
#375 = VERTEX_POINT ( 'NONE', #245 ) ;
#376 = DIRECTION ( 'NONE',  ( -1.000000000000000000, 0.000000000000000000, 3.510749891857823562E-15 ) ) ;
#377 = AXIS2_PLACEMENT_3D ( 'NONE', #126, #248, #376 ) ;
#378 = COORDINATED_UNIVERSAL_TIME_OFFSET ( 1, 0, .AHEAD. ) ;
#379 = CARTESIAN_POINT ( 'NONE',  ( 2.094888803305891846E-15, 0.000000000000000000, 0.6000000000000033085 ) ) ;
#380 = ADVANCED_FACE ( 'NONE', ( #365, #60 ), #392, .T. ) ;
#381 = CARTESIAN_POINT ( 'NONE',  ( 0.000000000000000000, 0.000000000000000000, 0.000000000000000000 ) ) ;
#382 = DATE_AND_TIME ( #256, #97 ) ;
#383 = FACE_OUTER_BOUND ( 'NONE', #274, .T. ) ;
#384 = CIRCLE ( 'NONE', #195, 0.2899999999999999800 ) ;
#385 = APPROVAL_PERSON_ORGANIZATION ( #287, #306, #251 ) ;
#386 = APPLICATION_PROTOCOL_DEFINITION ( 'international standard', 'config_control_design', 1994, #56 ) ;
#387 = DIRECTION ( 'NONE',  ( 3.491481338843133355E-15, -0.000000000000000000, 1.000000000000000000 ) ) ;
#388 =( LENGTH_UNIT ( ) NAMED_UNIT ( * ) SI_UNIT ( .MILLI., .METRE. ) );
#389 = DIRECTION ( 'NONE',  ( 1.000000000000000000, 0.000000000000000000, -3.510749891857823562E-15 ) ) ;
#390 = ADVANCED_FACE ( 'NONE', ( #301, #30 ), #155, .F. ) ;
#391 = SHAPE_DEFINITION_REPRESENTATION ( #10, #371 ) ;
#392 = CONICAL_SURFACE ( 'NONE', #46, 0.5250000000000000222, 1.047197551196587861 ) ;
#393 = ORIENTED_EDGE ( 'NONE', *, *, #55, .T. ) ;
#394 = CARTESIAN_POINT ( 'NONE',  ( 1.207640215041065256E-14, 0.000000000000000000, 3.458819045102513812 ) ) ;
#395 = DIRECTION ( 'NONE',  ( 1.000000000000000000, 0.000000000000000000, -3.510749891857823562E-15 ) ) ;
ENDSEC;
END-ISO-10303-21;
